Guitaretab - guitar tabs
Song name
# A B C D E F G H I J K L M N O P Q R S T U V W X Y Z

Robert Randolph And The Family Band - Aint Nothing Wrong tab

Its really done with a slide guitar but it sounds good on a guitar with wah.

[ Tab from: http://www.guitaretab.com/r/robert-randolph-and-the-family-band/82902.html ]
E|----------------------------------------------------------------|
B|---9b11-7-------------------------9b11-7------------------------|
G|-----------8p6-----------3----------------8p6-----------3-------|
D|----------------4h6p4--6---4-------------------4h6p4--6---4-6b--|
A|------------------------------6---------------------------------|
E|----------------------------------------------------------------|


E|----------------------------------------------------------------|
B|----------------------------------------------------------------|
G|---555555555-44444444-------------------------------------------|
D|---555555555-44444444-------------------------------------------|
A|---333333333-22222222-------------------------------------------|
E|----------------------------------------------------------------|


Related for Aint Nothing Wrong tab