Song name
# A B C D E F G H I J K L M N O P Q R S T U V W X Y Z

Robert Robinson - Come Thou Fount Of Every Blessing tab

------------------------------------------------------------------
			     COME THOU FOUNT - Traditional Hymn, Robert Robinson
------------------------------------------------------------------
Tabbed by: winiliz
Tuning: standard

You can throw a capo on 4, but it isn't necessary. If you do, notes are relevant 
to capo. To God be the glory!

e----------------------0------------------|
B--0-------0-3-----0-3---3-0--------------|
G----2-0-0-----2-2-----------2-0----------|
D-----------------------------------------|
A-----------------------------------------|
E-----------------------------------------|

e----------------------0------------------|
B--0-------0-3-----0-3---3-0--------------|
G----2-0-0-----2-2-----------2-0----------|
D-----------------------------------------|
A-----------------------------------------|
E-----------------------------------------|


e----0-2-3-2-0---0--------0-2-3-2-0--3----|
B--3-----------3---3-0--3-----------3-----|
G-----------------------------------------|
D-----------------------------------------|
A-----------------------------------------|
E-----------------------------------------|

e----------------------0------------------|
B--0-------0-3-----0-3---3-0--------------|
G----2-0-0-----2-2-----------2-0----------|
D-----------------------------------------|
A-----------------------------------------|
E-----------------------------------------|
Tap to rate this tab
 
# A B C D E F G H I J K L M N O P Q R S T U V W X Y Z