Song name
# A B C D E F G H I J K L M N O P Q R S T U V W X Y Z

Robert Robinson - Come Thou Fount Of Every Blessing tab

You can put a capo on 2nd fret to change the key

e |---------------------------------------------------------|
b |---------------------------------------------------------|
g |---------------------------------------------------------|
d |--2--0--------2--5--0--0--2--5--7--5--2--0-------2--0----|
a |--3--2--3--3--3--3--2--2--3--3--3--3--3--2--3----3--2--3-|
e |---------------------------------------------------------|

-----------------------------------------------|
-----------------------------------------------|
-----------------------------------------------|
----2--5--0--0--2--5--7--5--2--(0---)--(7--5)--|
-3--3--3--2--2--3--3--3--3--3--(2--3)--(3--3)--|
-----------------------------------------------|


e |--------------------------------------------------------------------|
b |--------------------------------------------------------------------|
g |--0---2---4--5--4--2--0--2--0---------0--2--4--5--4--2--0--2--0--5--|
d |------3------2--5--3--2--3-----2---------3-----2--5--3--2--3--2--2--|
a |--3------------------------------3----3-----------------------------|
e |--------------------------------------------------------------------|


e |-----------------------------------------------|
b |-----------------------------------------------|
g |-----------------------------------------------|
d |--2--0-----------2--5--0--0--2--5--7--5--2--0--|
a |--3--2--3--3--3--3--2--2--3--3--3--3--3--2--3--|
e |-----------------------------------------------|
Tap to rate this tab
 
# A B C D E F G H I J K L M N O P Q R S T U V W X Y Z