Song name
# A B C D E F G H I J K L M N O P Q R S T U V W X Y Z

Robert Schumann - Op 68 No 5 tab

Album fьr die Jugend (Album for the Young) for Piano, Op 68 - Robert Schumann
- No 5 Little Piece (Stьckchen)

Tablature by E.Ceja - August 2003
e-mail: chingon93@excite.com 

Moderato 

1
e|--------------|-----------------------------|--------------------|
b|-5------6-----|-8------10-----3------5------|-6--------1-----3---|
g|----0------0--|----0-------0-----0------0---|---0---0----0-----0-|
d|--------------|-----------------------------|-----0--------------|
a|-3------5-----|-7-------8-----2------3------|-5--------0-----2---|
e|--------------|-----------------------------|--------------------|
   4...............................................................
   1
4                 II
e|----------------------|-----------------------|----------------------|
b|-5----5-----3---------|-1----0-----5----6-----|-8----10---3-----5----|
g|---0-----0-------2----|---0-----0----0----0---|---0-----0----0-----0-|
d|--------------4-----4-|-----------------------|----------------------|
a|-3----3-----5----5----|------------3----5-----|-7-----8---2-----3----|
e|----------------------|-3----3----------------|----------------------|
              2 3  1  3   1    0     4
              4           3    2     1
7                                                III
e|---------------------|------------------------|------------------|
b|-6--------1-----3----|-5-----5-----3-----0----|-3--1--0-----1----|
g|---0---0-----0-----0-|----0-----0-------------|----------0-----0-|
d|---------------------|-------2--------3-----0-|-3--2-------------|
a|-5---5----0-----2----|-3----------------------|-3-----------0----|
e|---------------------|-------------1-----3----|-------3----------|
                         4  3  2           1  0   1
                         1                 2  3
10
e|------------------------|----------------------|---------------------|
b|-3-----5-----1-----3----|-5---------1-----3----|-5-----6-----3-----5-|
g|----0-----0-----0-----0-|----0---0-----0-----0-|----0-----0-----0----|
d|------------------------|----------------------|---------------------|
a|-2-----3-----0-----2----|-3----3----0-----2----|-3-----5-----2-----3-|
e|------------------------|----------------------|---------------------|
               1 

13            
e|------------------------|-------------------------|---------------------|
b|-6-----3-----5-----6----|-8-----10-----3-----5----|-6---------1-----3---|
g|----0-----0-----0-----0-|----0------0-----0-----0-|----0---0-----0----0-|
d|------------------------|-------------------------|---------------------|
a|-5-----2-----3-----5----|-7------8-----2-----4----|-5----5----0-----2---|
e|------------------------|-------------------------|---------------------|


16                           III
e|--------------------------|---------||
b|-5-----5-----3-----0------|-3---1---||
g|----0-----0-----------0---|---------||
d|-------2--------3---------|-3---2---||
a|-3------------------------|-3-------||
e|-------------1-----3------|---------||


Tap to rate this tab
# A B C D E F G H I J K L M N O P Q R S T U V W X Y Z