Song name
# A B C D E F G H I J K L M N O P Q R S T U V W X Y Z

Roberta Sa - Ah Se Eu Vou chords

Highlighted       Show chord diagrams
Roberta Sa - Ah, se eu vou

http://robertasa.com.br/site/discografia/



Intro:

e|----------3---0-------0------0-------0-----------3----|
B|--1---------------1--------------3-------1------------|
G|------------------------------------------------------|
D|------2---------------2------2-------2-------2--------|
A|--3---------------3--------------3-------3------------|
E|------------------------------------------------------|

 |----------3---0-------0------0-----------------3------|
 |--1---------------1--------------3---1-----1----------|
 |---------------------------------------------0--------|
 |------2---------------2------2-----------2------------|
 |--3---------------3--------------3---3----------------|
 |------------------------------------------------------|

 |----------3---0-------0------0-------0-----------3----|
 |--1---------------1--------------3-------1------------|
 |------------------------------------------------------|
 |------2---------------2------2-------2-------2--------|
 |--3---------------3--------------3-------3------------|
 |------------------------------------------------------|

 |----------3---0-------0------0-----------------3------|
 |--1---------------1--------------3---1-----1----------|
 |---------------------------------------------0--------|
 |------2---------------2------2-----------2------------|
 |--3---------------3--------------3---3----------------|
 |------------------------------------------------------|


C          F
Todo santo dia ela ia
    F  Am
Ela ia lá me chamar
C          G
Pra dançar coco
             F             Am
À beirada da saia querendo rodar.

C          G
Pelo jeito dela
            F           Am
Pelo dengo, pela simpatia
      F       C
Se eu caio na roda
          G           C
Essa moça pode me segurar.

  F           C                G           Am
Aí ela vai querer que eu deixe de ir pro samba
  F           C                      E7       Am
Aí ela vai querer que eu não vá na ciranda de Lia
  F           C                      G      Am
Aí ela vai querer que eu não saia de perto dela
  F              C                G
E eu olhando pra beira da saia querendo rodar.

Am
Ah, se eu vou.


C,F,G,Am
C,F,G,C

C,F,G,Am
C,F,G,C


C          F
Todo santo dia ela ia
    F  Am
Ela ia lá me chamar
C          G
Pra dançar coco
             F             Am
À beirada da saia querendo rodar.

C          G
Pelo jeito dela
            F           Am
Pelo dengo, pela simpatia
      F       C
Se eu caio na roda
          G           C
Essa moça pode me segurar.

  F           C                G           Am
Aí ela vai querer que eu deixe de ir pro samba
  F           C                      E7       Am
Aí ela vai querer que eu não vá na ciranda de Lia
  F           C                      G      Am
Aí ela vai querer que eu não saia de perto dela
  F              C                G
E eu olhando pra beira da saia querendo rodar.

Am
Ah, se eu vou.


C,F,G,Am
C,F,G,C

C,F,G,Am
C,F,G,C


C          F
Todo santo dia ela ia
    F  Am
Ela ia lá me chamar
C          G
Pra dançar coco
             F             Am
À beirada da saia querendo rodar.

C          G
Pelo jeito dela
            F           Am
Pelo dengo, pela simpatia
      F       C
Se eu caio na roda
          G           C
Essa moça pode me segurar.

  F           C                G           Am
Aí ela vai querer que eu deixe de ir pro samba
  F           C                      E7       Am
Aí ela vai querer que eu não vá na ciranda de Lia
  F           C                      G      Am
Aí ela vai querer que eu não saia de perto dela
  F              C                G
E eu olhando pra beira da saia querendo rodar.

Am
Ah, se eu vou.


C,F,G,Am
C,F,G,C

C,F,G,Am (La la la ya la ya la ya)
C,F,G,C  (La la la ya la ya la ya)

C,F,G,Am (La la la ya la ya la ya)
C,F,G,C  (La la la ya la ya la ya)

C,F,G,Am (La la la ya la ya la ya)
C,F,G,C  (La la la ya la ya la ya)

C,F,G,Am (La la la ya la ya la ya)
C,F,G,C  (La la la ya la ya la ya)
Tap to rate this tab
# A B C D E F G H I J K L M N O P Q R S T U V W X Y Z