Song name
# A B C D E F G H I J K L M N O P Q R S T U V W X Y Z

Roberto Alagna - Corengrato chords

Highlighted       Show chord diagrams
The key varies with the version.

Intro
G#m A B E
A E B E
----------------
1-
E C#m
G#m
A
E9
A E
B E
----------------
2-
G#m Gdim G#m
F#m B
A A
E B E
----------------
Song structure
Intro - 1 - 2 - Intro
Intro - 2 - Intro - Intro
     E9       Gdim
|----x---------3-----|
|----5---------2-----|
|----8---------3-----|
|----6---------x-----|
|----7---------x-----|
|----x---------3-----|
Tap to rate this tab
# A B C D E F G H I J K L M N O P Q R S T U V W X Y Z