Song name
# A B C D E F G H I J K L M N O P Q R S T U V W X Y Z

Robi Draco Rosa - Cruzando Puertas tab

Cruzando Puertas
Robi Draco Rosa

----INTRO-----

 Bm   A                            F#
|-2-|----------------------------|-------------------------|
|-3-|-------2-----2--------------|-------------------------|
|-4-|-----2---2------------------|-------3-----------------|
|-4-|---2-------2----2h4p2-------|-----4---4----2h4p2------|
|-2-|-0--------------------5-4---|---4-------4-------5-4-0-|
|-0-|--------------------------5-|-2-----------------------|

---VERSE----
Bm                        A
Voy cruzando puertas tras de ti
F#                  Bm      A-A4-A
amor, Porque quiero yo       Asi
F#                   Bm - Bm4 - Bm
Porque se que nos buscamos
A                      F#add9
Voy pisando pasos que ya di

|-2h3p2-0-----|-2-----3p2-----------------|
|---------3-2-|-3---3---3----2-----3p2----|
|-------------|-2-2-------2--2---2---2----|
|-------------|-0------------2-2-------2--|
|-------------|--------------0------------|
|-------------|---------------------------|

---CHORUS-----
Bm             A 
Donde estas te busco, solo encuentro 
Bm                    A          F#        
un lugar de piedra y silencio

A                            Bm
Voy cruzando puertas tras de ti
A                            F#
Voy cruzando puertas tras de ti

----VERSE----

Bm    
La Oscuridad 
A               F# - A - Bm
invita a la experiencia
         A
amiga y enemiga
                 F#
es un animal que alimentaras hasta el fin

----CHORUS-----
Bm             A 
Donde estas te busco, solo encuentro 
Bm                    A          F#        
Un lugar de piedra y silencio
Bm              
tu cuerpo acecha tras la sombra
A
tu cuerpo laberinto eterno
Bm                   A          F#       
Cubre peligro y misterio
Tap to rate this tab
# A B C D E F G H I J K L M N O P Q R S T U V W X Y Z