Robin Pecknold - Im Losing Myself tab

-------------------------------------------------------------------------------
                        I'm Losing Myself - Robin Pecknold
-------------------------------------------------------------------------------
Tabbed by: Nick Adams

A really mellow song by Robin Pecknold... heard it for the first time this 
afternoon and there aren't any tabs on here or youtube so I thought it'd be
nice to fix that.
There's a capo on the second fret, so watch that you finger the correct frets
(e.g. the 8th fret for the second capo is the 10th fret on the neck)... I
know I sound condescending but I managed to confuse myself with capos more
often than I like to admit.
Enjoy

Tuning: Standard
Capo 2nd fret

Intro         x8
e||-----------||
B||o---------o||
G||-------0---||
D||-----0-----||
A||o---------o||
E||---3-------||

Verse
e|---------------------------------------------------------|
B|---------------------------------------------------------|
G|------0---------------------------------------0-------0--|
D|----0---------3-------3-------3-------3-----0-------0----|
A|------------5-------5-------5-------5--------------------|
E|--3-------6-------6-------6-------6-------3-------3------|

e|----------------------------------|------------------------------|
B|----------------------------------|------------------------------|
G|----------------------------------|------------------------------|
D|------3--------3-------3-------3--|------2------2------2------2--|
A|----5-----1/5--------5-------5----|----3------3------3------3----|
E|--6----------------6-------6------|--5------5------5------5------|

e|----------------------------------|
B|----------------------------------|
G|----------------------------------|
D|------3-------3--------3-------3--|
A|----5-----1/5--------5-------5----|
E|--6----------------6-------6------|

Repeat the verse twice, repeating the last four bars on the first repeat.

Chorus?
e|------------------------------------|-----------------------------------|
B|------------------------------------|-----------------------------------|
G|-------------0------0------0------0-|------------------0----0----0---0--|
D|------5----0------0------0------0---|------5-----5----0----0----0---0---|
A|----7-------------------------------|----7-----7------------------------|
E|--8------3------3------3------3-----|--8-----8-------3----3----3---3----|

                                          x6
e|---------------------------||-----------||
B|---------------------------||o---------o||
G|---------------------------||-----------||
D|------2-----2-----2-----2--||-------3---||
A|----3-----3-----3-----3----||o----5----o||
E|--5-----5-----5-----5------||---6-------||

Repeat the verse twice

Bridge              x4
e||-----------------||
B||o---------------o||
G||-----------------||
D||-------2------3--||
A||o----3------5----||
E||---5------6------||

e|--------------------|-------------|
B|--------------------|-------------|
G|--2-------2h3---3---|--2----------|
D|----3---3-3-------3-|----3--------|
A|--------------------|------0------|
E|--1---1-------1-----|--1-----1----|
                                        x2
e||-------------------------------------||
B||o-----------------------------------o||
G||---2--------3-----3-----3-----3------||
D||-----3---3--3-3---3-3---3-3---3-3----||
A||o-----------------------------------o||
E||---1---1--------1-----1-----1-----1--||

Outro
e|----------------------|------------------------------------------|
B|--5---------5---------|--3---------3---------3---------3---------|
G|-------3---------3----|-------3---------3---------3---------3----|
D|-----3---3-----3---3--|-----3---3-----3---3-----3---3-----3---3--|
A|----------------------|------------------------------------------|
E|--1---------1---------|--1---------1---------1---------1---------|

e|------------------------|
B|-5---------5---------3--|
G|------3--------3-----3--|
D|----3---3----3----------|
A|------------------------|
E|-1---------1------1--1--|

************************************

| /   slide up
| \   slide down
| h   hammer-on
| p   pull-off
| ~   vibrato
| +   harmonic
| x   Mute note
| b   Bend
| pb  Pre-bend
| br  Bend release
| pbr Pre-bend release
| brb Bend release bend

************************************

Tap to rate this tab
 
# A B C D E F G H I J K L M N O P Q R S T U V W X Y Z