Song name
# A B C D E F G H I J K L M N O P Q R S T U V W X Y Z

Robin Thicke - Tie My Hands tab

Hey so this is my first tab. I love the guitar on this song. 
I only wrote the basics to this song, if you want to go crazy 
and find out the tab for the other guitar, go ahead. 
You have to figure out the tuning. I only say this is novice 
because it is repetitive. There is an pause, feel out the 
song for the vibe. Keep on playin and enjoy :) All I can say is
"We got Soul Yall!"

/     = slide up
p     pull-off


E-----------------|-----------------|-----------------|
B-8-9-5/7--7p5----|--------8-9-5/7--|-7p5-------------|
G--------------7-9|11-7-------------|-----7--9--11-7--|
D----------------8|-----------------|--------8--------|
A-7---5-----------|------5/7-----5--|-----------------|
E-----------------|---7-------------|--------------7--|
repeat 3x

E-----------------|-----------------|-----------------|
B-8-9-7--7p5------|--------8-9-7---7|p5---------------|
G------------7-9--|11-7-------------|---7--9---11-7---|
D-----------------|-----------------|------8----------|
A-7---5-----------|------5/7---5----|-----------------|
E--------------10-|---7-------------|-------------7---|

Play the whole selection till the song ends.
Tap to rate this tab
# A B C D E F G H I J K L M N O P Q R S T U V W X Y Z