Song name
# A B C D E F G H I J K L M N O P Q R S T U V W X Y Z

Robin Thicke - My Life tab

Artist: Robin Thicke
Song: My Life
Album: Despicable Me Soundtrack
Tuning: Standard 

Intro/Verses

e |--5---5---7---x----------|
B |--6---5---9---7----------|
G |--7---6---8---7----------|
D |--7---7---9---7----------|
A |--5---7---7---x----------|   
E |--x---5---x---7----------|

I met this pretty girl
She was from DC
I liked the way that she smiled
Said theres a party tonight
You wanna come with me?
She said Baby Ill try.
I waited home alone
For her to walk in
For her to bring me her light
Then she came in the room
She looked right at me
She was the vision of my life


Chorus:

e |--5---5---7---x----------|
B |--6---5---9---7----------|
G |--7---6---8---7----------|
D |--7---7---9---7----------|
A |--5---7---7---x----------|   
E |--x---5---x---7----------|
 
My life) Everything is wonderful
(My life) The sun has started shining so bright
(My life) Just like its supposed to go
(My life) And its just getting started tonight

You and me were living the dream tonight(tonight)
You and me were living the dream alright(alright)
You and me were living the dream tonight(tonight)
You and me were living the dream alright(alright)

Verse 2
Im in the perfect place
Cant wipe the smile off my face
Aint nothing bringing me down(owhoo na)
I feel like clapping my hands
I feel like stomping my feet
I feel like grooving all night
Put your body close to me
Pick up you can feel my energy 
Charge up on the floor and get hot with me
(You and I celebrate God)
Around me now
You couldnt stop it so just
Treat this like no other day cause Im
Having the time of my life


Chorus

Bridge

e |-5---3---7---x-----------|
B |-7---5---9---7-----------|
G |-6---4---8---7-----------|
D |-7---5---9---7-----------|
A |-5---3---7---x-----------|   
E |-x---x---x---7-----------|

Take it to the sky
Like never before (like never before)
And well land right on the moon
Like never before (like never before)

Na na na na na na (baby)
Na na na na na na (life feels so good)
Na na na na na na (yeah)
Na na na na na na (it feels so good)


Chorus
Tap to rate this tab
# A B C D E F G H I J K L M N O P Q R S T U V W X Y Z