Guitaretab - guitar tabs
Song name
# A B C D E F G H I J K L M N O P Q R S T U V W X Y Z

Robin Thicke - The Stupid Things tab

LINK! : www.robinthicke.com ( I don't know htlm but anyway...the adress is there 
.

-------------------------------------------------------------------------------
			     The Stupid Things - Robin Thicke
-------------------------------------------------------------------------------
Tabbed by:	Simon Damoah
Email:		simmeyao@hotmail.com

Tuning: E


Hey, couldn't find any tab of this song so i figured i'd give it a shot.
Let me know what u think ;). Love this guys music.

[ Tab from: http://www.guitaretab.com/r/robin-thicke/81068.html ]
[Intro]
     Am            F#m    Am        D              F      G F G        F  E
e|-----------------------------------------------------0---------------------|
B|----------5---------2--------5------7----------------1--3-1-------3--1--0--|
G|----------5---------2--------5------7-------------------4-2-------4--2--1--|
D|------------------4---------------7----------------------------------------|
A|---------7-----------------7----5-------------------3-----------5----------|
E|----5-------5---2------5--------------------------1----------3-------------|


[Verse]
Am  		F#m          Am		D
Just charge it to my account I hope I haven't gone
F		    E
over my limit, With interest rates so swift
Am	     F#m	   Am		 D
No need to scream and shout, no doubt if women are from
F		 E
Venus now...I'll get to them somehow


[Pre-chorus]
A	C#m	     D	   E
All I want to do is please you please myself by
F#m    E       D
living my life too


[Chorus]
	     F			        E
And all the stupid things I do have absolutely no reflection on
A	   C#m	     D		E
How I feel about you How I feel about
	     F			        E
All the stupid things I do have absolutely no reflection on
A	   C#m	     D		E
How I feel about you how I feel about you yeah
Related for The Stupid Things tab
Advertisement will be closed in 10 seconds