Song name
# A B C D E F G H I J K L M N O P Q R S T U V W X Y Z

Robin Trower - In This Place tab

-------------------------------------------------------------------------------
			     In This Place - Robin Trower
-------------------------------------------------------------------------------
Tabbed by:Ira
Email:

Tuning:Standard

e|---------0-------|---------0-------|---------0-------|---------0-------|
B|-------0---0---0-|-------0---0---0-|-------0---0---0-|-------0---0---0-|
G|-----4-------0---|-----4-------0---|-----2-------0---|-----2-------0---|
D|---4-------------|---4-------------|---2-------------|---2-------------|
A|-5---------------|-5---------------|-3---------------|-3---------------|
E|-----------------|-----------------|-----------------|-----------------|


e|---------0-------|---------0-------|---------0-------|---------0-------|
B|-------0---0---0-|-------0---0---0-|-------0---0---0-|-------0---0---0-|
G|-----0-------0---|-----0-------0---|-----2-------0---|-----2-------0---|
D|---1-------------|---1-------------|---2-------------|---2-------------|
A|-2---------------|-2---------------|-3---------------|-3---------------|
E|-----------------|-----------------|-----------------|-----------------|


e|---------0-------|---------0-------|-----------------|-----------------|
B|-------0---0---0-|-------0---0---0-|-----------------|-----------------|
G|-----4-------0---|-----4-------0---|-----------------|-----------------|
D|---5-------------|---5-------------|-----------------|-----------------|
A|-----------------|-----------------|-----------------|-----------------|
E|-0---------------|-0---------------|-----------------|-----------------|





| /  slide up
| \  slide down
| h  hammer-on
| p  pull-off
| ~  vibrato
| +  harmonic
| x  Mute note
===============================================================================
Tap to rate this tab
# A B C D E F G H I J K L M N O P Q R S T U V W X Y Z