Song name
# A B C D E F G H I J K L M N O P Q R S T U V W X Y Z

Robin Trower - I Cant Stand It tab

-------------------------------------------------------------------------------
                             I Can't Stand It - Robin Trower
-------------------------------------------------------------------------------
Tabbed by:Tom Bryson
Tuning:Standard

My first attempt, probably not right but close enough and sounds ok. Just the intro so 
far. Same riff is used throughout the song.

e|---------------------------------|
B|---------------------------------|
G|-------------1-------------------|
D|---------0-4--------4-444-333----| x2
A|-2~--0h2-------0~----------------|
E|---------------------------------|

e|---------------------------------|
B|---------------------------------|
G|-------------1-2+----------------|
D|---------0-4--------4-444-333----| x1
A|-2~--0h2-------------------------|
E|---------------------------------|

e|---------------------------------|
B|---------------------------------|
G|-------------1-------------------|
D|---------0-4--------4-444-333----| x1
A|-2~--0h2-------0~----------------|
E|---------------------------------|

************************************

| /   slide up
| \   slide down
| h   hammer-on
| p   pull-off
| ~   vibrato
| +   harmonic
| x   Mute note
| b   Bend
| pb  Pre-bend
| br  Bend release
| pbr Pre-bend release
| brb Bend release bend

************************************
Tap to rate this tab
# A B C D E F G H I J K L M N O P Q R S T U V W X Y Z