Guitaretab - guitar tabs
Song name
# A B C D E F G H I J K L M N O P Q R S T U V W X Y Z

Robin Trower - Too Rolling Stoned tab

 *---------------------------------PLEASENOTE------------------------------*
This file is the authors own work and represents their interpretation of the
song. You may only use this file for private study, scholarship, or research. 
*---------------------------------------------------------------------------*

             TOO ROLLING STONED


Tuning: e flat, Too Rolling Stoned -from essence-

  (play 2 times intro....................)(play 4 time)
e|---------------------|---------------|--------------|---------------|
B|---------------------|---------------|--8(x)-10-8(x)|---------------|
G|----------------3-5\-|-------------5\|--8(x)-10-8(x)|88------10-----|
D|----1-3----1-3/5-----|----1-3---3/5--|--8(x)-10-8(x)|88--88--10-----|
A|1-3----1-3-----------|-1-3---1-3-----|--------------|66--88---8-----|
E|---------------------|---------------|--------------|----66---------|

e|--------------|----------------end verse1----|
B|--------------|----------------back to intro-|
G|88------------|88------10----repeat----------|
D|88--88--10----|88--88--10------till----------|
A|66--88--10----|66--88---8-------end----------|
E|----66---8----|----66-----------verse2-------|

  (............play 21/2 times..............)
e|12-121212-121212------|12-121212-1212------|12-121212-1212-15151515--|
B|12-121212-121212------|12-121212-1212------|12-121212-1212-15151515--|
G|12-121212-121212-10-8-|12-121212-1212-10-8-|12-121212-1212-15151515--|
D|----------------------|--------------------|-------------------------|
A|----------------------|--------------------|-------------------------|
E|----------------------|--------------------|-------------------------|

e|12-121212-121212-----|12-121212-1515151515|----------11-------------------|
B|12-121212-121212-----|12-121212-1515151515|!11--11-13--13p11-13p11--------|
G|12-121212-121212-8-10|12-121212-1515151515|---12------------------12-11^-8|
D|---------------------|--------------------|-------------------------------|
A|---------------------|--------------------|-------------------------------|
E|---------------------|--------------------|-------------------------------|

e|@7--68-----3------------6h86-----------8\6/8h11p8----8#7-----------------|
B|------@6-46-4---------@6-----87-678-6/8------------!6-----11-0h1113-11/13|
G|--------------5p35\------------------------------------------------------|
D|-------------------------------------------------------------------------|
A|-------------------------------------------------------------------------|
E|-------------------------------------------------------------------------|

e|------------|----------|----------|----------|-----------------|
B|^6-68-46-4\0|----------|----------|----------|-----------------|
G|------------|88------10|88--------|88------10|--------------3/5|
D|------------|88--88--10|88--88--10|88--88--10|---1-3---1-3/5---|
A|------------|66--88---8|66--88--10|66--88---8|1-3---1-3--------|
E|------------|----66----|----66---8|----66----|-----------------|
                ( ..play 3 times...)  (....play 12 times....)
e|--------------|------------------|--|---------------------|-------------|
B|--------------|888-(x)-10-888-(x)|8-|---------------------|-------------|
G|------------5\|888-(x)-10-888-(x)|8-|---------------------|3/5\3--03/5h8|
D|---1-3---3-5--|888-(x)-10-888-(x)|8-|---1----1--3---5/7-5-|-------------|
A|1-3---1-3-----|------------------|--|3-3--3-3-3--3--------|-------------|
E|--------------|------------------|--|---------------------|-------------|

e|---------------------------------------6---------------------------------|
B|------------------6-!6---^^^10@10---876-#7#6-------------1113--1311----11|
G|543----------02/3--5--5---------------------8-9/10-13!11-----12----12-#11|
D|---543-1^31--------------------------------------------------------------|
A|-------------------------------------------------------------------------|
E|-------------------------------------------------------------------------

e|----------------------------|--------363------------|-----6------------|
B|1311-----------------8--!8~8|!6!646!6----^64684-4!98|!6#68-^^64-03/1110|
G|----1210810!10^^8-810-810---|------------------5----|------------------|
D|----------------------------|-----------------------|------------------|
A|----------------------------|-----------------------|------------------|
E|----------------------------|-----------------------|------------------|

e|-----------|------------------|87-78-87---------------|----------------|
B|@16!1616~13|1113-----1311--@11|--8--------------------|------11--------|
G|-----------|----11/12----12---|--------^108-----8#10--|121110--!10~10--|
D|-----------|------------------|------------10-10----10|----------------|
A|-----------|------------------|-----------------------|----------------|
E|-----------|------------------|-----------------------|----------------|

e|----------8---------------8---------------|-----------8-----------------|
B|---8118----118-----8118----8118-----------|---8118-----118--------------|
G|!10----!10----8-!10----!10------10#1010810|!10-----!10-----10810111085~8|
D|------------------------------------------|-----------------------------|
A|------------------------------------------|-----------------------------|
E|------------------------------------------|-----------------------------|

e|----6---------p86-303--------------------------------|---5p3----------1-|
B|--!6-@6@664-46/8-----@664-4~4------------------------|-----------------4|
G|58---------5-------------5----543----------------30^3|3/5-------3-01-2--|
D|---------------------------------543-1-3-1--1/3/5----|-------345--------|
A|----------------------------------------3--3---------|------------------|
E|-----------------------------------------------------|------------------|
[ Tab from: http://www.guitaretab.com/r/robin-trower/45859.html ]
e|---------5p3|-------------------------------------------------------------|
B|------------|----10---64--6/8----1-31#3#331-#31--5/71011-8\5-^^7-8654-^6!6|
G|543-5-3/5---|x1-2--0/2--5----55\-----------3------------------------------|
D|------------|-------------------------------------------------------------|
A|------------|-------------------------------------------------------------|
E|------------|-------------------------------------------------------------|

e|------------------|-------------11----------------------------------|
B|8654-@4-----3/5\3-|-----------13--1113--1113-1311------~64-4/5\4-4--|
G|---55---543-------|--13--!11---------12-------------------5-----5---|
D|-----------5------|/12--12------------------------------------------|
A|------------------|-------------------------------------------------|
E|------------------|-------------------------------------------------|


  (................play 4 times.........................)    
e|111212121212121211121212121212121112121212121212-1211-8/--!1311----------|
B|111313131313131311131313131313131113131313131313-1311-8/-------13--------|
G|-------------------------------------------------------------------------|
D|-------------------------------------------------------------------------|
A|-------------------------------------------------------------------------|
E|-------------------------------------------------------------------------|


e|686--686-------86----------|-11-8--------811-8------118-----------------|
B|---8----8\6/8----8^64-4!4~4|8--8-8---8--8---8----8-8--11----------------|
G|---------------------5-----|------!10--------@10--------^108--810-^108--|
D|---------------------------|--------------------------------10--------10|
A|---------------------------|--------------------------------------------|
E|---------------------------|--------------------------------------------|

e|------------|
B|8-#10#10@~10|
G|8-#10#10@~10|
D|------------|
A|------------|
E|------------|

e|---------------------------------------|---------------------|
B|11116--6--------6-------4--------------|---------------------|
G|-----58-5--7810--8765--3-5---353-------|--------------3h53---|
D|---------------------35---535---531-1~3|^31------1-3/5-------|
A|-----------------------------------3---|---31---3------------|
E|---------------------------------------|---------------------|

e|------------------333----333----33-----3----|--11-----------------------|
B|-----4^64---4^6------64-----6~4---6\4/6--!11|13--1113---1113---1311-----|
G|5p345----545---5--555-~5-555----55----------|---------12-----------1210-|
D|--------------------------------------------|---------(play2x)-(play 2x)|
A|--------------------------------------------|---------------------------|
E|--------------------------------------------|---------------------------|

e|----------------------|-----------------|----------------------6----|
B|-------------------!10|-----------------|--8--8!10---8!10---876-6---|
G|108--~8------810/12---|--------11----~10|10-10-----10------------8--|
D|---10--10-810---------|10121110--1012---|---------------------------|
A|----------------------|-----------------|---------------------------|
E|----------------------|-----------------|---------------------------|

e|--------8---8---------------8-------------------!11|11p8-------------|
B|-----811-!11-118---8118-8!11-118---811-------------|----@6^64-4^6----|
G|--810-----------!10-------------!10----@10108--8---|---------5-------|
D|10-------------------------------------------10----|-----------------|
A|---------------------------------------------------|-----------------|
E|---------------------------------------------------|-----------------|

e|--11-11p8------8-------------------------|
B|-!15-------4/!6--7\6-4-~4----------------|
G|----------------------5------------------|
D|-----------------------------------------|
A|-----------------------------------------|
E|-----------------------------------------|

e|----8-----8---------8------8---------------------------------------6|
B|/811-11-8--11p8----8-11p8---118------8-------4---46@64---------@4!6-|
G|---------(4times)10------10-----10810-8--~8-5-545-----54\3---35-----|
D|---------------------------------------10------------------35-------|
A|--------------------------------------------------------------------|
E|--------------------------------------------------------------------|

e|-----------------36---33---36---36---33\286---36-----------3/5\3|
B|^64-~4----~4--!~6---!6---!6---!6---!6-------!6--^636^6--54------|
G|---5--5-35-------------------------------------------------3/5\3|
D|----------------------------------------------------------------|
A|----------------------------------------------------------------|
E|----------------------------------------------------------------|

e|3/5\3--333/5\3-5/8\5-5\4\3-3/5/8\5-543----------------------------------|
B|-------------------------------------------4/6\4------------------------|
G|3/5\3--333/5\3-5/8\5-5\4\3-3/5/8\5-543---3------543----303--------------|
D|--------------------------(PLAY 2 TIME)-5----------535----5P3\1-~~33----|
A|--------------------------------------------------------------------63-3|
E|----------------------------------------------------------------------6-|

e|--------|
B|--------|
G|-----5\3|
D|3H5/7---|
A|--------|
E|--------|

+++++++++++++++++++++++++++++++++++
+  The bends are before the note  +
+ ^  bend up an down or down an up+
+ !  fullbend                     +
+ @  halfbend                     +
+ #  quarterbend                  +
+++++++++++++++++++++++++++++++++++
| /  slide up
| \  slide down
| h  hammer-on
| p  pull-off
| ~  vibrato
| +  harmonic
| x  Mute note,
|(x) variable amounts mute note
Tabbed by: && for referance only
*---------------------------------------------------------------------------*
Related for Too Rolling Stoned tab
Too Rolling Stoned chords by Robin Trower