Song name
# A B C D E F G H I J K L M N O P Q R S T U V W X Y Z

Robots In Disguise - I Live In Berlin tab

Coh theres hardly any robots in disguise tabs :O
This is just one i randomly put together ;) Enjoy
I think its mostly right but you will have to Work some of it out :D

Intro :]


E|-030--33--03030--|
B|-----------------|
G|-----------------|       x2
D|-----------------|
A|-----------------|
E|-----------------|


E|----------03030--|
B|-----------------|
G|-----------------|       x1
D|-----------------|
A|-----------------|
E|-----------------|


E|---1111----111111-----3/10------|
B|-------2222---------------------|
G|--------------------------------|     x1
D|--------------------------------|
A|--------------------------------|
E|--------------------------------|


E|---3333-0000-3333333--15-11-|
B|----------------------------|
G|----------------------------|       x1
D|----------------------------|
A|----------------------------|
E|----------------------------|


1st Verse In Power Chords :D

Its easy to work out but play it as fast/slow as you want ;)

Meet me at the breakfast club....
E|-------------------------------------------------------|
B|-------------------------------------------------------|
G|-------------------------------------------------------|   x2
D|------7------5-----7-----------------------------------|
A|------7 x16--5 x7--7 x8--------------------------------|
E|------5------3-----5-----------------------------------|

Chorus-

I live in berlin.....
E|------------------------|
B|------------------------|
G|------------------------|
D|---5------10-----7------|        x4
A|---5 x4---10 x2--7 x2---|
E|---3------8------5------|


E|--3333111133331111---3/10------------|
B|-------------------------------------|
G|-------------------------------------|   x1
D|-------------------------------------|
A|-------------------------------------|
E|-------------------------------------|


E|---1111----111111-----10--3-----------|
B|-------2222---------------------------|
G|--------------------------------------|     x1
D|--------------------------------------|
A|--------------------------------------|
E|--------------------------------------|


Verse 2

3 euros in for a swim
E|-------------------------------------------------------|
B|-------------------------------------------------------|
G|-------------------------------------------------------|   x2
D|------7------5-----7-----------------------------------|
A|------7 x16--5 x7--7 x8--------------------------------|
E|------5------3-----5-----------------------------------|


Chorus

I live in berlin.....
E|------------------------|
B|------------------------|
G|------------------------|
D|---5------10-----7------|        x6
A|---5 x4---10 x2--7 x2---|
E|---3------8------5------|


^^ For the last repeats you will need to work it out


E|------------------------|
B|------------------------|
G|------------------------|
D|---5------10-----7------|        x2
A|---5 x4---10 x2--7 x2---|
E|---3------8------5------|

Play along and you will also have to work this bit out ;)


By Katie :]
(add more robots in disguise tabs people!!)
Tap to rate this tab
# A B C D E F G H I J K L M N O P Q R S T U V W X Y Z