Guitaretab - guitar tabs
Song name
# A B C D E F G H I J K L M N O P Q R S T U V W X Y Z

Robots In Disguise - The Sex Has Made Me Stupid tab

----------------------------------------------------------------------
       Robots In Disguise  The Sex Has Made Me Stupid
----------------------------------------------------------------------
Tabbed by: katieplaysbass
Email: run.katie.run@hotmail.com

Tuning: standard

Main Riff
[ Tab from: http://www.guitaretab.com/r/robots-in-disguise/109121.html ]
e|---88---88---88--------8-10-1212---1212---1212---1515-12-15-----|
B|-----------------1010-------------------------------------------|
G|----------------------------------------------------------------|
D|----------------------------------------------------------------|
A|----------------------------------------------------------------|
E|----------------------------------------------------------------|

Bridge Part

e|------------------------------------------------------------------|
B|------------------------------------------------------------------|
G|------------------------------------------------------------------|
D|--------------------------------------2-2-----2-2-----2-2-----2-2-|
A|------3-3-----3-3-----3-3-----3-3-0-0-----0-0-----0-0-----0-0-----|
E|--1-1-----1-1-----1-1-----1-1-------------------------------------|

This is all very basic, its easy to work out which bit fits in where


| /  slide up
| \  slide down
| h  hammer-on
| p  pull-off
| ~  vibrato
| +  harmonic
| x  Mute note
Related for The Sex Has Made Me Stupid tab