Song name
# A B C D E F G H I J K L M N O P Q R S T U V W X Y Z

Robyn - Be Mine tab

-----------------------------------------------------------------------
			     SONG NAME  Be Mine
-----------------------------------------------------------------------
Tabbed by: asrich08
Email:

Tuning: standard

This is actually a tab of the erik hassle and ellie goulding version. But it could apply 
this version too I guess.

Intro and verse part. Strum each chord once.

e|--0-----x-----0---------------------------------------------------------|
B|--2-----3-----0---------------------------------------------------------|
G|--2-----2-----0----x10--------------------------------------------------|
D|--2-----0-----0---------------------------------------------------------|
A|--0-----0-----2---------------------------------------------------------|
E|--0-----0-----3---------------------------------------------------------|

Bridge and Chorus. Listen to the song for the strumming pattern.
e|--0---x---0---x----0---x---0---x------------------------------------|
B|--2---3---0---3----2---3---0---3------------------------------------|
G|--2---2---0---2----2---2---0---2---repeat---------------------------|
D|--2---0---0---0----2---0---0---0------------------------------------|
A|--0---0---2---0----0---0---2---0------------------------------------|
E|--0---0---3---0----0---0---3---0------------------------------------|

These are the chords used through out the entire song. I know this is really basic, but 
you listen to the song, it makes perfect sense.

************************************

| /   slide up
| \   slide down
| h   hammer-on
| p   pull-off
| ~   vibrato
| +   harmonic
| x   Mute note
| b   Bend
| pb  Pre-bend
| br  Bend release
| pbr Pre-bend release
| brb Bend release bend

************************************
Tap to rate this tab
# A B C D E F G H I J K L M N O P Q R S T U V W X Y Z