Song name
# A B C D E F G H I J K L M N O P Q R S T U V W X Y Z

Robyn - Bum Like You tab

Robyn - Bum Like you
Just the verse and chorus 
Tabbed by: Stijn Strotmann

|--------------------|
|--------------------|
|---5----4-----------|
|-------------4------|
|-4----2-------------|
|-----------2--------|

|--------------------|
|--------------------|
|-----9-----6--------|
|--7--9--9--6--------|
|--7--7--9--4--------|
|--5--7--7--4--------|

|-17---14-12-11------|
|------------------9-|
|--------------------|
|--------------------|
|--------------------|
|--------------------|
Tap to rate this tab
 
# A B C D E F G H I J K L M N O P Q R S T U V W X Y Z