Robyn - Dancing On My Own chords

Highlighted       Show chord diagrams
    _____________________
   / Robyn              /  Robyn's intense voice just makes something very
  / Dancing on My Own  /  very special of this otherwise trivial song.
 / Body Talk          /  This is pop music at its best! ;)
/____________________/


 Capo on 4th fret
(The original key F# major is inconvenient for guitar, so I suggest capo here.)


VERSES:

      D       A       G       %   4x/2x      Bm      A       G       %
||----2---|---0---|---3---|--------||    |---2---|---0---|---3---|-------|
||o---3---|---2---|---3---|-------o||    |---3---|---2---|---3---|-------|
||----2---|---2---|---0---|--------||    |---4---|---2---|---0---|-------|
||----0---|---2---|---0---|--------||    |---4---|---2---|---0---|-------|
||o-------|---0---|---2---|-------o||    |---2---|---0---|---2---|-------|
||--------|-------|---3---|--------||    |-------|-------|---3---|-------|


D           A                        G
  Somebody said you got a new friend
  Does she love you better than I can?
  There's a big black sky over my town
  I know where you're at, I bet she's around
Bm          A             G
  Yeah, I know it's stupid, I just gotta see it for myself


D                 A              G
  I'm just gonna dance all night
  I'm all messed up, I'm so outta line
Bm               A           G
  Stilettos on broken bottles, I'm spinning around in circles




CHORUS:

(These are the chords spiced up a little for guitar.)
    D     Asus4   Gmaj7     %       D     Asus4   Gmaj7     %
|---2---|---0---|---2---|-------|---2---|---0---|---2---|-------|
|---3---|---3---|---3---|-------|---3---|---3---|---3---|-------|
|---2---|---2---|---0---|-------|---2---|---2---|---0---|-------|
|---0---|---2---|---0---|-------|---0---|---2---|---0---|-------|
|-------|---0---|---x---|-------|-------|---0---|---x---|-------|
|-------|-------|---3---|-------|-------|-------|---3---|-------|

    Bm      A     Gmaj9     %      Bm7      A     Gmaj7     %
|---2---|---0---|---2---|-------|---2---|---0---|---2---|-------|
|---3---|---2---|---3---|-------|---3---|---2---|---3---|-------|
|---4---|---2---|---2---|-------|---2---|---2---|---4---|-------|
|---4---|---2---|---0---|-------|---0---|---2---|---0---|-------|
|---2---|---0---|---x---|-------|---2---|---0---|---x---|-------|
|-------|-------|---3---|-------|-------|-------|---3---|-------|


D             Asus4
  I'm in the corner
                Gmaj7
  watching you kiss her - oh
D                 Asus4
  I'm right over here
                  Gmaj7
  Why can't you see me? - oh
Bm               A
  I'm giving it my all
                   Gmaj9
  but I'm not the girl you're taking home
   Bm7         A              Gmaj7
  ooh - I keep dancing on my own (I keep dancing on my own)




BRIDGE:

G           A                G                  A
  So far away, but still so near (The lights go on, the music dies)
G                A               G            A
  But you don't see me standing here (I just came) to say goodbye




--------------------------------------------------------------------------------
For others than campfire-guitarists, here are the actual chords in F# major.

 Intro:
| F# | C# | B | B |

 Verse:
||: F# | C# | B | B :||4x
| D#m | C# | B | B |

 Chorus:
||: F# | C# | B | B :||
||: D#m | C# | B | B :||

 Verse:
||: F# | C# | B | B :||2x
| D#m | C# | B | B |

 Chorus:
||: F# | C# | B | B :||
||: D#m | C# | B | B :||

 Breakdown:
||: B | C# | B | C# :||

 Chorus:
| break | % | % | % |
||: D#m | C# | B | B :||
||: F# | C# | B | B :||4x

 Outro:
||: F# | C# | B | B :||...


+--------------------------------------------------------------------------+
Jon Sebastian Frederiksen - 5th /January /10
Just mail me at Maitinin@gmail.com with questions, comments and corrections!
Tap to rate this tab
 
# A B C D E F G H I J K L M N O P Q R S T U V W X Y Z