Song name
# A B C D E F G H I J K L M N O P Q R S T U V W X Y Z

Robyn - Call Your Girlfriend tab

its a little bit of lead guitar for the song (ruffly).

Standard Tuning.  h = hammer on

E ----------------------------------------------|
A ----------------------------------------------|
D ----------------------------------------------|
G -------11-9------11-9-6------11-9------11-9-6-|
B ---10-9-----10-9--------10-9------10-9--------|
E ----------------------------------------------|
  "call your girlfriend... say its not her fault..."

E ------------------------------------------------------------|
A ------------------------------------------------------------|
D ------------------------------------------------------------|
G ---------------------14-14h16----14-14h16-------14-14h16----|
B ---10-10h12-12h14-14----------12----------14-14----------12-|
E ------------------------------------------------------------|
  "but you just met somebody new.. and now its gonna be me and you.."



these are just a few licks i came up with while messing about on guitar.
Tap to rate this tab
# A B C D E F G H I J K L M N O P Q R S T U V W X Y Z