Song name
# A B C D E F G H I J K L M N O P Q R S T U V W X Y Z

Rocco Deluca And The Burden - Mystified tab

Help us improve GuitareTab! Take a short survey!
-------------------------------------------------------------------------------
	           MYSTIFIED - Rocco Deluca & the Burden
-------------------------------------------------------------------------------
Tabbed by: Tom P.
Email: padools11@hotmail.com

Tuning: Standard

Intro
     G    Em    C
e|---3----0-----0-0-----------|
B|---0----0-----1-1-----------|
G|---0----0-----0-0-----------|
D|---0----2-----2-0h2---------|
A|---0----2-----3-3-----------|
E|---3----0-------------------|

     G    Em    Bm
e|---3----0-----2-------------|
B|---0----0-----3-------------|
G|---0----0-----4-------------|
D|---0----2-----4-------------|
A|---0----2-----2-------------|
E|---3----0-----2-------------|

Verse
     G    Em    C
e|---3----0-----0-0-----------|
B|---0----0-----1-1-----------|
G|---0----0-----0-0-----------|
D|---0----2-----2-0h2---------|
A|---0----2-----3-3-----------|
E|---3----0-------------------|

     G    Em    Bm
e|---3----0-----2-------------|
B|---0----0-----3-------------|
G|---0----0-----4-------------|
D|---0----2-----4-------------|
A|---0----2-----2-------------|
E|---3----0-----2-------------|

     G    Em    C    Am
e|---3----0-----0----0-0------|
B|---0----0-----1----1-1p0----|
G|---0----0-----0----2-2------|
D|---0----2-----2----2-2------|
A|---0----2-----3----0-0------|
E|---3----0-------------------|

     G    Em    Bm
e|---3----0-----2-----------------|
B|---0----0-----3------2---0------|
G|---0----0-----4-------2---2-----|
D|---0----2-----4--------0---2----|
A|---0----2-----2---------1---1p0-|
E|---3----0-----2-----------------|

Chorus
    Em    C    G    D 
e|--0-----0----3----3---------|
B|--0-----1----0----2---------|
G|--0-----0----0----3---------|
D|--2-----2----0----0---------|  x 2
A|--2-----3----0--------------|
E|--0----------3--------------|

    Em    C    G    D    Am 
e|--0-----0----3----3----0----|
B|--0-----1----0----2----1----|
G|--0-----0----0----3----2----|
D|--2-----2----0----0----2----|  
A|--2-----3----0---------0----|
E|--0----------3--------------|

Bridge
    Am      C      G    D 
e|--0-0-----0-0----3----3-0h3---|
B|--1-0h1---1-1----0----2-2-----|
G|--2-2-----0-0----0----3-3-----|
D|--2-2-----2-0h2--0----0-0-----| x 2
A|--0-0-----3-3----0------------|
E|-----------------3------------|

End
    D
e|--3----|
B|--2----|
G|--3----|
D|--0----|
A|-------|
E|-------|


| /  slide up
| \  slide down
| h  hammer-on
| p  pull-off
| ~  vibrato
| +  harmonic
| x  Mute note
===============================================================================
Related for Mystified tab