Song name
# A B C D E F G H I J K L M N O P Q R S T U V W X Y Z

Rocco Deluca And The Burden - Gift chords

Highlighted       Show chord diagrams
to play with acoustic guitar and Standard tuning (Rocco plays it with another 
tuning, but I found a way to play it with normal tuning)
first tab, hope you like it :)

Intro
e|---------------------------------------------------------------------------|
B|--3--5--3--3-----3---------------------------------------------------------|
G|--4--5--4--4--5--4--5------------------------------------------------------|
D|--5--5--5--5--5--5--5--5---------------------------------------------------|
A|--5--3--5--5--3--5--3--0h2-------------------------------------------------|
E|--3-----3--3--3--3--3--3---------------------------------------------------|

G
I don't want to be
Gm
Political energy
 C
A constant apology
     D#
Or an instrument of hurt
G
A hammer coming down
Gm
To pound and pound and pound
   C
The door to your closet
  D#
Is greedy with love


G      Cm G
Here's my gift to you
C         Cm
Accept it accept it
       G   Cm  G
That's all you have to do
C         Cm
Accept it accept it


G
Confused, the twilight sings
Gm
It looks like diamond rings
    C
The jewels that this hour brings
     D#
Throw shadows in the park
G
Don't wanna waste your time
Gm
Or take what isn't mine
      C
Don't fix me cuz i'm broken
  D#
I was that way from the start

(optional):
e|---------------------------------------------------------------------------|
B|---------------------------------------------------------------------------|
G|---------------------------------------------------------------------------|
D|-5-5-5-5-7-8-8-7h8p7-5-2-1-------------------------------------------------|
A|---------------------------------------------------------------------------|
E|---------------------------------------------------------------------------|



G      Cm G
Here's my gift to you
C         Cm
Accept it accept it
       G   Cm  G
That's all you have to do
C         Cm
Accept it accept it

G      Cm G
Here's my gift to you
C         Cm
Accept it accept it
       G   Cm  G
That's all you have to do
C         Cm
Accept it accept it


Tap to rate this tab
# A B C D E F G H I J K L M N O P Q R S T U V W X Y Z