Song name
# A B C D E F G H I J K L M N O P Q R S T U V W X Y Z

Rocco Deluca And The Burden - Any Man tab

Tab made by Jim Brady

Open D tuning
D A D F# A D
(Low to high)



-Chorus/Intro (Play 4 times)-
D--------------------------------------------|
A--------------------------------------------|
F#-------------------------------------------|
D------------5/6\5\3/5-----------------------|
A------3-5---5/6\5\3/5-----3-5---3-5-3-5-3-5-|
D----0-------5/6\5\3/5---0-------------------|
             ^With slide

-Verse (All with slide)-
D--------------------------------------------|
A--------------------------------------------|
F#-------------------------------------------|
D--------3-------5--------------3------5-----|
A------3-------5--------------3------5-------|
D----3------/5-------0------3-----/5-------0-|

D----------------------------------------------------------|
A----------------------------------------------------------|
F#---------------------------------------------------------|
D--------3-------5--------------3------5-------8--------10-|
A------3-------5--------------3------5-------8-------10----|
D----3------/5-------0------3-----/5------/8-----/10-------|



-Album Solo (All with slide)-
D-----------------------------------------------------|
A----/12---/15-14-12-12---/12-12-10-10---/15-14----17-|
F#----------------------------------------------12----|
D-----------------------------------------------------|
A-----------------------------------------------------|
D-----------------------------------------------------|
Tap to rate this tab
 
# A B C D E F G H I J K L M N O P Q R S T U V W X Y Z