Rocco Deluca And The Burden - Save Yourself tab

Tab made by Jim Brady
www.YouTube.com/WatchJim

Open G tuning
D G D G B D
(Low to high)

Note: On the album, he plays with a kapo on the second fret, so the
song is in the key of A. This entire song is played with a slide.



-Verse/Intro-
D|---------------------------------|
B|---------------------------------|
G|---------------------------------|
D|-0-0-0-0-0-0-0-0-0-0-0-0-0-0-0-0-|
G|-0-0-0-0-0-0-0-0-0-0-0-0-0-0-0-0-|
D|-0-0-0-0-0-0-0-0-0-0-0-0-0-0-0-0-|

D|---------------------------------|
B|---------------------------------|
G|---------------------------------|
D|-0-0-0-0-0-0-0-0-0-0-0-0-0-3-3-3-|
G|-0-0-0-0-0-0-0-0-0-0-0-0-0-3-3-3-|
D|-0-0-0-0-0-0-0-0-0-0-0-0-0-3-3-3-|

-Chorus- (Play 4 times)
D|-0--3--5--5/6\5\3/5--3--5--0-/12-12-12-|
B|-0--3--5--5/6\5\3/5--3--5--0-/12-12-12-|
G|-0--3--5--5/6\5\3/5--3--5--0-/12-12-12-|
D|-0--3--5--5/6\5\3/5--3--5--0-/12-12-12-|
G|-0--3--5--5/6\5\3/5--3--5--0-/12-12-12-|
D|-0--3--5--5/6\5\3/5--3--5--0-/12-12-12-|
                               ^^^^^^^^^
          (The 4th time, skip these notes)

-Bridge 1-
D|-----------------------------------------------------------|
B|---------------------------5/10-10-3-3---------------------|
G|-8-8-5-5-10-10-3-3---8-8-5-5-10-10-3-3---8-8-5-5-10-10-3-3-|
D|-8-8-5-5-10-10-3-3---8-8-5-5-10-10-3-3---8-8-5-5-10-10-3-3-|
G|-----------------------------------------------------------|
D|-----------------------------------------------------------|

-Bridge 2- (Play 2 times)
D|----------------------------------------------------------|
B|----------------------------------------------------------|
G|-0-3-5-7-5-3-5-3-0-0-3-5-3-12---0-3-5-7-5-3-5-3-0-0-3-5-3-|
D|----------------------------------------------------------|
G|----------------------------------------------------------|
D|----------------------------------------------------------|
Tap to rate this tab
 
# A B C D E F G H I J K L M N O P Q R S T U V W X Y Z