Song name
# A B C D E F G H I J K L M N O P Q R S T U V W X Y Z

Rocco Deluca And The Burden - Draw tab

-------------------------------------------------------------------------------
			     Draw - Rocco DeLuca & the Burden
-------------------------------------------------------------------------------
Tabbed by: Ryan
Email:razadera@comcast.net

Tuning: standard EADGBe

Use barr chords for the G,Bm and F#. Play Em open.

INTRO:
F#


e|-------------------------------------------------------------------------|
B|-------2-----------------------------------------------------------------|
G|--------------4----3------4---3------------------------------------------|
D|-------------------------------------------------------------------------|
A|-------------------------------------------------------------------------|
E|-------------------------------------------------------------------------|
*play this before each measure of F#. Listen to the song to hear how it goes and for 
pattern.


Verse 1:(play above riff before each F# in verse)


F#
If there's violence in your heart

F#
Then we have something in common

F#
Whenever we're apart

          G
I want to break

Verse 2:

F#
If the ocean's in our way

F#
Then we'd better start quick-swimming

F#
If you have something to say

                         G       Bm
Then you fucking say it now...

Chorus:

G
I will draw a line to you

Em
I will draw a line to you

F#
It could be simple,

Verse 3:(riff)

F#
with the symmetry of parts

F#
If we are disconnected

F#
Separation is an art

F#                  G        Bm
I don't think i'll learn

Chorus:


G
I will draw a line to you

               Em
I will draw a line to you

             F#
It could be simple

Bridge:

   G     F#       Bm
My hand guides my pencil

   G         F#                    Bm
My head is a mad child scribbling circles


Solo: played on a dobro with a slide and sounds like an octaver on it. Maybe an MXR blue box.?

e|---------------------------------------------------------------------------|
B|---------------------------------------------------------------------------|
G|------4/6----4\2--------------------4/6--------4\2-------------------------|
D|-------------------4\2-----------------------------------------------------|
A|-------------------------4\2-----------------------------------------------|
E|---------------------------------------------------------------------------|

e|---------------------------------------------------------------------------|
B|---------------------------------------------------------------------------|
G|-------4/6----8\6------4/6-----8/6----4/6~~~-------------------------------|
D|---------------------------------------------------------------------------|
A|---------------------------------------------------------------------------|
E|---------------------------------------------------------------------------|

e|---------------------------------------------------------------------------|
B|---------------------------------------------------------------------------|
G|------4/6------4/2--------4/8-----8\6/8-----\4---/6\4~~~~------------------|
D|---------------------------------------------------------------------------|
A|---------------------------------------------------------------------------|
E|---------------------------------------------------------------------------|


Chorus:


               Em
I will draw a line to you

               F#
I will draw a line to you

               Em
I will draw a line to you

            F#
It could be simple

F#
0000oooooo000oooo

end on: F#
Tap to rate this tab
 
# A B C D E F G H I J K L M N O P Q R S T U V W X Y Z