Song name
# A B C D E F G H I J K L M N O P Q R S T U V W X Y Z

Rocco Deluca And The Burden - I Trust You To Kill Me tab

-------------------------------------------------------------------------------
	   I Trust you to Kill me - Rocco DeLuca
-------------------------------------------------------------------------------
Tabbed by: Ryan
Email:razadera@comcast.net

Tuning:Open D (DADF#AD) Low to high

Do all slides (/) with a slide

D|--0--0----0---0------------------------------------------------------------|
A|--0--0----3---0------------------------------------------------------------|
F#|-0--0----0---0------------------------------------------------------------|
D|--0--0----0---0-----2/3----------------------------------------------------|
A|--0--0----0---0-----2/3----------------------------------------------------|
D|--0--0----0---0-----2/3----------------------------------------------------| x repeat 
intro

No guitar parts during verse

Chorus:

D|---------------------------------------------------------------------------|
A|---------------------------------------------------------------------------|
F#---------------------------------------------------------------------------|
D|--3--3--3----2-2-2----1-1-1------------------------------------------------|
A|--3--3--3----2-2-2----1-1-1------------------------------------------------|
D|--3--3--3----2-2-2----1-1-1------------------------------------------------|
"I trust you to kill me"

D|--0--0----0---0------------------------------------------------------------|
A|--0--0----3---0------------------------------------------------------------|
F#|-0--0----0---0------------------------------------------------------------|
D|--0--0----0---0-----2/3----------------------------------------------------|
A|--0--0----0---0-----2/3----------------------------------------------------|
D|--0--0----0---0-----2/3----------------------------------------------------| Repeat 
more time until next verse

Again no Guitar parts for verse

Chorus:

D|---------------------------------------------------------------------------|
A|---------------------------------------------------------------------------|
F#---------------------------------------------------------------------------|
D|--3--3--3----2-2-2----1-1-1------------------------------------------------|
A|--3--3--3----2-2-2----1-1-1------------------------------------------------|
D|--3--3--3----2-2-2----1-1-1------------------------------------------------|
"I trust you to kill me"

D|--0--0----0---0------------------------------------------------------------|
A|--0--0----3---0------------------------------------------------------------|
F#|-0--0----0---0------------------------------------------------------------|
D|--0--0----0---0-----2/3----------------------------------------------------|
A|--0--0----0---0-----2/3----------------------------------------------------|
D|--0--0----0---0-----2/3----------------------------------------------------| Repeat 
more time until next verse

Bridge:

D|---0-0-0-0--0-0---0---0----------------------------------------------------|
A|---0-0-0-0--0-0---0---0----------------------------------------------------|
F#|--4-4-4-4--0-0---0---0----------------------------------------------------|
D|---5-5-5-5--0-0---7---0----------------------------------------------------|
A|---5-5-5-5--0-0---7---0----------------------------------------------------|
D|---0-0-0-0--0-0---0---0----------------------------------------------------| x repeat 
the end of the bridge

I've never heard an album version of the song if there is a solo section, you repeat the 
parts. I have only seen the videos on youtube and he does a different solo everytime 
use your imagination.

Chorus:

D|---------------------------------------------------------------------------|
A|---------------------------------------------------------------------------|
F#---------------------------------------------------------------------------|
D|--3--3--3----2-2-2----1-1-1------------------------------------------------|
A|--3--3--3----2-2-2----1-1-1------------------------------------------------|
D|--3--3--3----2-2-2----1-1-1------------------------------------------------|
"I trust you to kill me"

D|--0--0----0---0------------------------------------------------------------|
A|--0--0----3---0------------------------------------------------------------|
F#|-0--0----0---0------------------------------------------------------------|
D|--0--0----0---0-----2/3----------------------------------------------------|
A|--0--0----0---0-----2/3----------------------------------------------------|
D|--0--0----0---0-----2/3----------------------------------------------------|

repeat until the end of the song. All of the live versions end on the
slide....

|-2/3---|
|-2/3---|
|-2/3---|
|-2/3---|
|-2/3---|
|-2/3---|

Well, I hope you enjoy the song, its the first version tabbed but I'm 100% sure it's correct.

| /  slide up
| \  slide down
| h  hammer-on
| p  pull-off
| ~  vibrato
| +  harmonic
| x  Mute note
===============================================================================
Tap to rate this tab
# A B C D E F G H I J K L M N O P Q R S T U V W X Y Z