Guitaretab - guitar tabs
Song name
# A B C D E F G H I J K L M N O P Q R S T U V W X Y Z

Rock Goddess - Hell Hath No Fury tab

Rock Goddess - Hell Hath No Fury

Intro/Chorus
eb|-------------------------------------------------------------------|
bb|-------------------------------------------------------------------|
gb|--7---9--7--9--12--9---9--7--5-------------------------4-----------|
db|--7---9--7--9--12--9---9--7--5--7--7--5----------5-----------5--7--|
ab|--5---7--5--7--10--7---7--5--3--7--------7--5h7-----7-----7--------|
Eb|--------------------------------5----------------------------------|

Verse
eb|---------------------------------------------|
bb|---------------------------------------------|
gb|-----4--5--------------6--7--9--10-----------|
db|--7--4--5--2--3--7--9--6--7--9--10--7--8--9--|
ab|--7--2--3--2--3--7--9--4--5--7---8--7--8--9--|
Eb|--5--------0--1--5--7---------------5--6--7--|

“Wait and see…”
eb|------------------------------------------------|-----------|
bb|------------------------------------------------|-----------|
gb|------10--12--12--10--12--10--7--9--7--9--------|-----------|
db|--12--10--12--12--10--12--10--7--9--7--9--------|--9--7--9--|
ab|--12--8---10--10--8---10---8--5--7--5--7--[x2]--|--9--7--9--|
Eb|--10--------------------------------------------|--7--5--7--|


[ Tab from: http://www.guitaretab.com/r/rock-goddess/90547.html ]
Rock Goddess - Hell Hath No Fury

Intro/Chorus
e|--------------------------------------------------------------------------|
b|--------------------------------------------------------------------------|
g|--------------------------------------------------------------3-----------|
d|--11---13--11--13--16--13---13--11--9--6--6--4----------4-----------4--6--|
a|--11---13--11--13--16--13---13--11--9--6--------6--4h6-----6-----6--------|
E|---9---11---9--11--14--11---11---9--7--4----------------------------------|

Verse
e|---------------------------------------------|
b|---------------------------------------------|
g|---------------------------------------------|
d|--6--8--9--2--6--8--10--11--13--14--6--7--8--|
a|--6--8--9--2--6--8--10--11--13--14--6--7--8--|
E|--4--6--7--0--4--6---8---9--11--12--4--5--6--|

“Wait and see…”
e|----------------------------------------------------|--------------|
b|----------------------------------------------------|--------------|
g|----------------------------------------------------|--------------|
d|--11--14--16--16--14--16--14--11--13--11--13--------|--13--11--13--|
a|--11--14--16--16--14--16--14--11--13--11--13--[x2]--|--13--11--13--|
E|---9--12--14--14--12--14--12---9--11---9--11--------|--11---9--11--|
Advertisement will be closed in 10 seconds