Guitaretab - guitar tabs
Song name
# A B C D E F G H I J K L M N O P Q R S T U V W X Y Z

Rock Hard Power Spray - Redneck Superstar tab

-------------------------------------------------------------------------------
			     Redneck Superstar - Rock Hard Power Spray
-------------------------------------------------------------------------------
Tabbed by: Rasmus Madsen
Email: rasmus_bodker@hotmail.com

Tuning: Standard

I just tabbed out the rythm guitar part, the soloing i leave up to you...

Intro/verse(Palm Muted) riff:
e|---------------------------------------------------------------------------|
B|---------------------------------------------------------------------------|
G|---------------------------------------------------------------------------|
D|-2-2-5-5-6-6-7-7-8-8-9-9-7---5-2-------------------------------------------|
A|-0-0-3-3-4-4-5-5-6-6-7-7-5-0-3-0-------------------------------------------|
E|---------------------------------------------------------------------------|

Chorus - "have seen my head? part":
[ Tab from: http://www.guitaretab.com/r/rock-hard-power-spray/109576.html ]
e|---------------------------------------------------------------------------|
B|---------------------------------------------------------------------------|
G|---------------------------------------------------------------------------|
D|---------------------------------------------------------------------------|
A|-2-2-2-2-2-2-2-2-2-2-2-2-2-2-5-5-5-5-5-5-5-5-5-5-5-5-5-5-5-----------------| Palm muted
E|-0-0-0-0-0-0-0-0-0-0-0-0-0-0-3-3-3-3-3-3-3-3-3-3-3-3-3-3-3-----------------|

Then it goes back into intro riff on "Today"

Bridge/solo part:

e|---------------------------------------------------------------------------|
B|---------------------------------------------------------------------------|
G|--2--------5 --------2----------5-5-5-5------------------------------------|
D|--2--5--4--5------2--2--5--4-3--5-5-5-5------------------------------------|
A|--0--5--4--3--3h5----0--5--4-3--3-3-3-3------------------------------------|
E|-----3--2---------------3--2-1---------------------------------------------|

During solo just strum

e|---------------------------------------------------------------------------|
B|---------------------------------------------------------------------------|
G|--2--------5 --------------------------------------------------------------|
D|--2--5--4--5---------------------------------------------------------------|
A|--0--5--4--3---------------------------------------------------------------|
E|-----3--2------------------------------------------------------------------|

Enjoy!

| /  slide up
| \  slide down
| h  hammer-on
| p  pull-off
| ~  vibrato
| +  harmonic
| x  Mute note
===============================================================================
Related for Redneck Superstar tab
×
Redneck Superstar