Guitaretab - guitar tabs
Song name
# A B C D E F G H I J K L M N O P Q R S T U V W X Y Z

Rock Hard Power Spray - 1859 tab

standard tuning (E,a,d,g,b,e)
work out the rythm yourself, it's pretty simple.

intro and chorus: (the repetitions sometimes shifts but it should be simple to listen)
|--------------------------------------|
|--------------------------------------|
|--------------------------------------|
|----------------8-5---------------8-5-|
|--5-5-8-7-8-7-5-----5-5-8-7-8-7-5-----|
|--3-3---------------3-3---------------|
[ Tab from: http://www.guitaretab.com/r/rock-hard-power-spray/112964.html ]
|-----------------------------------------------|
|-----------------------------------------------|
|-----------------------------------------------|
|-----------------------------------------------|
|-8-8-11-10-11-10-8-6-6-6---5-5-8-7-8-7-5-6-6-6-|
|-6-6---------------4-4-4---3-3-----------4-4-4-|

can also be played in drop d tuning, which is easier for the finger positioning, but 
the power chords will be:
e|---  ---     ---|
b|---  ---     ---|
g|---  ---     ---|
d|---  ---     ---|
a|-5-  -8-     -6-|
D|-5-, -8- and -6-|

verse:
wait for a while, then:
|------|
|------|
|--12~-
|------|
|------|
|------|

let it ring for a long time, then just before the chorus:
in standard tuning:
|---------|
|---------|
|---------|
|---------|
|--8~--3~-|
|--6---1--|

in drop d:
|---------|
|---------|
|---------|
|---------|
|--8---3~-|
|--8~--3--|

solo should be easy to listen, just bend away the 18th fret on the b string crazy :D
hope you enjoy!..
Related for 1859 tab
Advertisement will be closed in 10 seconds