Song name
# A B C D E F G H I J K L M N O P Q R S T U V W X Y Z

Rock Hard Power Spray - Ctw tab

Tabbed by: Jakob Miland
Email: milandsamuelsen[at]gmail[dot]com

Tuning: Drop D (D A D G H e)

Intro: 4x

e||---------------------------|---------------------------|
B||---------------------------|---------------------------|
G||---------------------------|---------------------------|
D||---------------------------|---------------------------|
A||------3--5--------3--5-----|-----2--3------------------|
D||---0--------0--0--------0--|--0--------0--3--5--3--0---|


Chorus:

e||--------------------------|--------------------------|
B||--------------------------|--------------------------|
G||--------------------------|--------------------------|
D||--------------------------|--------------------------|
A||-----3--5--------3--5-----|-----2--3-----------------|
D||--0--------0--0--------0--|--0--------0--3--5--3--0--|


e||--------------------------|--------------------------|
B||--------------------------|--------------------------|
G||--------------------------|--------------------------|
D||--------------------------|--------------5--4--3-----|
A||-----3--5~-------3--5-----|--3--2--1-----------------|
D||--0-----------0--------0--|-----------0-----------0--|

e||---------------------------|---------------------------|
B||---------------------------|---------------------------|
G||---------------------------|---------------------------|
D||---------------------------|---------------------------|
A||-----3--5--------3--5-----|-----2--3-------------------|
D||--0--------0--0--------0--|--0--------0--3--5--3--0----|

e||---------------------------|---------------------------|
B||---------------------------|---------------------------|
G||---------------------------|---------------------------|
D||---------------------------|---------------------------|
A||-----3--5~-------3--5-----|--------5-----0--3----------|
D||--0-----------0--------0--|--3--5-----3--------5--3----|

Outro: x4

e||------------------------------------------|------------------------------------------|
B||------------------------------------------|------------------------------------------|
G||------------------------------------------|------------------------------------------|
D||--(3)--(3)--(3)--(3)--(3)--(3)--(3)--(3)--|--(3)--(3)--(3)--(3)--(3)--(5)--(7)--(0)--|
A||--(3)--(3)--(3)--(3)--(3)--(3)--(3)--(3)--|--(3)--(3)--(3)--(3)--(3)--(5)--(7)--(0)--|
D||---3----3----3----3----3----3----3----3---|---3----3----3----3----3----5----7----0---|

e||------------------------------------------|------------------------------------------|
B||------------------------------------------|------------------------------------------|
G||------------------------------------------|------------------------------------------|
D||--(0)--(0)--(0)--(0)--(0)--(0)--(0)--(0)--|--(0)--(0)--(0)--(0)--(0)--(0)--(0)--(0)--|
A||--(0)--(0)--(0)--(0)--(0)--(0)--(0)--(0)--|--(0)--(0)--(0)--(0)--(0)--(0)--(0)--(0)--|
D||---0----0----0----0----0----0----0----0---|---0----0----0----0----0----0----0----0---|


Tips:
* Listen to the song for timing. Tabs can never show the real rhythm.

* Smack on some heavy distortion, and believe me, 
nobody will ever notice if you play the wrong note!

* Send me feedback and rate so I can get better!


Legend:

| (#) optional note
| /  slide up
| \  slide down
| h  hammer-on
| p  pull-off
| ~  vibrato
| +  harmonic
| x  Mute note
Tap to rate this tab
 
# A B C D E F G H I J K L M N O P Q R S T U V W X Y Z