Song name
# A B C D E F G H I J K L M N O P Q R S T U V W X Y Z

Rock Kills Kid - Paralyzed tab

Tune down 1/2 step
I love rock kills kid so I am excited to do my very first tab on one of their songs.I 
you like it enjoy.

           Intro on bass.                                  (0:00-0:22)

Gb|---------------------------------------------------|
Db|---------------------------------------------------| x3
Ab|---7-------------------------------------7-77------|
Eb|-0---0--0-5-7-10-1010-5-7-10-7-77-5-7-10------0-5-7|

you could play it like this too...

Gb|-------------------------------------------------|
Db|-------------------------------------------------| x3
Ab|---7----------5-55------5----------5--7-77-------|
Eb|-0---0--0-5-7-------5-7---7-77-5-7----------0-5-7|


This feels like another dream
Trapped underneath my own routines
I tried to lift it off of me
I give up, I give up
I just sit and bleed

Guitar I                                                   (0:22-0:30)
         (fast tremolo or up/down picking)
Eb|----------------------------------------------------|
Bb|----------------------------------------------------|
Gb|-999999999999-11111111-7777777777777777777777777777-|
Db|----------------------------------------------------|
Ab|----------------------------------------------------|
Eb|----------------------------------------------------|
P.M...................................................

Eb|-------------------------|
Bb|-------------------------|
Gb|-11111111-999999999999---|
Db|-------------------------|
Ab|-------------------------|
Eb|-------------------------|
P.M......................

I'm paralyzed,
I'm paralyzed,
I'm stuck in the middle
and I'm paralyzed.

Guitar II                                                  (0:30-0:45)

Eb|---12-12121212-12-7-7-------7-7-77-7-00----------|
Bb|---12-12121212-12-7-7-------7-7-77-7-00----8-10-8|
Gb|---9--9-9-9-9--9--4-4--2h4--4-4-44-4-------------|x2
Db|-------------------------------------------------|
Ab|-------------------------------------------------|
Eb|-0-----------------------------------------------|

Guitar I

Eb|----------------------------------------------------|
Bb|----------------------------------------------------|
Gb|-999999999999-11111111-7777777777777777777777777777-|
Db|----------------------------------------------------|
Ab|----------------------------------------------------|
Eb|----------------------------------------------------|
P.M...................................................

Eb|-------------------------|
Bb|-------------------------|
Gb|-11111111-999999999999---|x2
Db|-------------------------|
Ab|-------------------------|
Eb|-------------------------|
P.M......................

Arms and Legs, in between
stuck inside a stupid dream
Look for her, but cannot see
I give up, I give up
there's no time to believe.

Guitar II						   (0:45-1:00)

Eb|---12-12121212-12-7-7-------7-7-77-7-00----------|
Bb|---12-12121212-12-7-7-------7-7-77-7-00----8-10-8|
Gb|---9--9-9-9-9--9--4-4--2h4--4-4-44-4-------------|x2
Db|-------------------------------------------------|
Ab|-------------------------------------------------|
Eb|-0-----------------------------------------------|

Guitar I

Eb|----------------------------------------------------|
Bb|----------------------------------------------------|
Gb|-999999999999-11111111-7777777777777777777777777777-|
Db|----------------------------------------------------|
Ab|----------------------------------------------------|
Eb|----------------------------------------------------|
P.M...................................................

Eb|-------------------------|
Bb|-------------------------|
Gb|-11111111-999999999999---|x2
Db|-------------------------|
Ab|-------------------------|
Eb|-------------------------|
P.M......................

I'm paralyzed! I'm paralyzed!
Stuck in the middle
And I'm paralyzed
I'm paralyzed! I'm paralyzed!
The only way to cope
is to realize


Guitar II                                                   (1:04-1:18)

Eb|-12-12----|
Bb|-12-12----|
Gb|-9--9-----| once
Db|----------|
Ab|----------|
Eb|----------|

Guitar I

Eb|----------------------------------------------------|
Bb|----------------------------------------------------|
Gb|-999999999999-11111111-7777777777777777777777777777-|
Db|----------------------------------------------------|
Ab|----------------------------------------------------|
Eb|----------------------------------------------------|
P.M...................................................

Eb|-------------------------|
Bb|-------------------------|
Gb|-11111111-999999999999---|x2
Db|-------------------------|
Ab|-------------------------|
Eb|-------------------------|
P.M......................

This feels like another dream
Everyone grabbed ahold of me
Pulled from every side of me
I give up, I give up
There's nothing left of me

Guitar II                                                   (1:18-1:34)

Eb|---12-12121212-12-7-7-------7-7-77-7-00----------|
Bb|---12-12121212-12-7-7-------7-7-77-7-00----8-10-8|
Gb|---9--9-9-9-9--9--4-4--2h4--4-4-44-4-------------|x2
Db|-------------------------------------------------|
Ab|-------------------------------------------------|
Eb|-0-----------------------------------------------|

Guitar I

Eb|----------------------------------------------------|
Bb|----------------------------------------------------|
Gb|-999999999999-11111111-7777777777777777777777777777-|
Db|----------------------------------------------------|
Ab|----------------------------------------------------|
Eb|----------------------------------------------------|
P.M...................................................

Eb|-------------------------|
Bb|-------------------------|
Gb|-11111111-999999999999---|x2
Db|-------------------------|
Ab|-------------------------|
Eb|-------------------------|
P.M......................

Arms and Legs, in between
stuck inside a stupid dream
Look for her, but cannot see
I give up, I give up
there's no time to believe.

Guitar II                                                   (1:34-1:49)

Eb|---12-12121212-12-7-7-------7-7-77-7-00----------|
Bb|---12-12121212-12-7-7-------7-7-77-7-00----8-10-8|
Gb|---9--9-9-9-9--9--4-4--2h4--4-4-44-4-------------|x2
Db|-------------------------------------------------|
Ab|-------------------------------------------------|
Eb|-0-----------------------------------------------|

I'm paralyzed! I'm paralyzed!
Stuck in the middle
And I'm paralyzed
I'm paralyzed! I'm paralyzed!
The only way to cope
is to realize

Guitar II                                                   (1:49-2:05)

Eb|-12~-7~-7~-8~-|  |-10-10-|first time only
Bb|-12~-7~-7~-8~-|  |-------|
Gb|-9~--4~-4~-5~-|x2|-------|
Db|--------------|  |-------|
Ab|--------------|  |-------|
Eb|--------------|  |-------|


I'm paralyzed...
I'm paralyzed...

Guitar II                                                   (2:05-2:19)

Eb|---12-12121212-12-7-7-------7-7-77-7-00----------|
Bb|---12-12121212-12-7-7-------7-7-77-7-00----8-10-8|
Gb|---9--9-9-9-9--9--4-4--2h4--4-4-44-4-------------|x2
Db|-------------------------------------------------|
Ab|-------------------------------------------------|
Eb|-0-----------------------------------------------|

doo doo doo doo doo doo
doo doo doo doo doo doo
doo doo doo doo doo doo
doo doo doo doo doo doo


Guitar II                                                   (2:19-2:35)

Eb|---12-12121212-12-7-7-------7-7-77-7-00----------|
Bb|---12-12121212-12-7-7-------7-7-77-7-00----8-10-8|
Gb|---9--9-9-9-9--9--4-4--2h4--4-4-44-4-------------|x2
Db|-------------------------------------------------|
Ab|-------------------------------------------------|
Eb|-0-----------------------------------------------|


I'm paralyzed! I'm paralyzed!
Stuck in the middle
And I'm paralyzed
I'm paralyzed! I'm paralyzed!
The only way to cope
is to realize


Guitar II                                                   (2:35-2:49)

Eb|---12-12121212-12-7-7-------7-7-77-7-00----------|
Bb|---12-12121212-12-7-7-------7-7-77-7-00----8-10-8|
Gb|---9--9-9-9-9--9--4-4--2h4--4-4-44-4-------------|x1
Db|-------------------------------------------------|
Ab|-------------------------------------------------|
Eb|-0-----------------------------------------------|

Eb|---12-12121212-12-7-7-------7-7-77-7-7-7---|
Bb|---12-12121212-12-7-7-------7-7-77-7-7-7---|
Gb|---9--9-9-9-9--9--4-4--2h4--4-4-44-4-4-4---|x1
Db|-------------------------------------------|
Ab|-------------------------------------------|
Eb|-0-----------------------------------------|

Guitar I

Eb|----------------------------------------------------|
Bb|----------------------------------------------------|
Gb|-999999999999-11111111-7777777777777777777777777777-|
Db|----------------------------------------------------|
Ab|----------------------------------------------------|
Eb|----------------------------------------------------|
P.M...................................................

Eb|-------------------------|
Bb|-------------------------|
Gb|-11111111-999999999999---|x2
Db|-------------------------|
Ab|-------------------------|
Eb|-------------------------|
P.M......................

I'm paralyzed!
I'm stuck in the middle and I'm paralyzed
I'm paralyzed!
the only way to cope
is to realize


Guitar II                                                   (2:49-end)

Eb|---3-33-3-2-2-----2-2-22-2-2-----|
Bb|---3-33-3-2-2-----2-2-22-2-2-----|
Gb|--------------2h4----------------|
Db|---------------------------------|
Ab|---------------------------------|
Eb|-0---------------------------0~~~|
Tap to rate this tab
# A B C D E F G H I J K L M N O P Q R S T U V W X Y Z