Song name
# A B C D E F G H I J K L M N O P Q R S T U V W X Y Z

Rock Kills Kid - Are You Nervous tab

Rock Kills Kid
“Are You Nervous”
www.rockkillskid.com
www.myspace.com/rockkillskid

This is the main picking pattern for the song.  It is in Eb with the high Eb string
up to an F.  It’s a strange picking pattern, but is very easy.  Any questions can be emailed
seanrkk@yahoo.com

Tuning:
F
Bb
Gb
Db
Ab
Eb


Verses

F |--5-5--5--5---6---5-5--5--5---6---1-1--1--1---3---5-5--5--5---6--|
Bb|-3---3--3--3-5-5-3---3--3--3-5-5-1---1--1--1-1-1-3---3--3--3-5-5-|
Gb|0--0--0--0--0---0--0--0--0--0---0--0--0--0--0---0--0--0--0--0----|
Db|-----------------------------------------------------------------|
Ab|-----------------------------------------------------------------|
Eb|-----------------------------------------------------------------|

Chorus

F |--5-0--5--0---5--|
Bb|-8---8--8--8-8-8-|
Gb|7--7--7--7--7----|
Db|-----------------|
Ab|-----------------|
Eb|-----------------|

Bridge

Open Chords:
C – x32030
B – x20030
A – x0222x
C – x32030
B – x20030
D – xx0230
Tap to rate this tab
 
# A B C D E F G H I J K L M N O P Q R S T U V W X Y Z