Song name
# A B C D E F G H I J K L M N O P Q R S T U V W X Y Z

Rock Mafia - Fly Or Die tab

Tabbed by Alistair MacIntyre
Any problems with how the timing goes or how anything is played im going to record
a video playing it tomorrow or sometime soon. Whenever I get a chance.

I think this tab is pretty much 100%, however there are probably somethings that I've
not done right. I did this whole song in about 2 hours which includes playing it on 
my guitar and writing it all out in tab form. So some might be a wee bit rushed.

Thanks guys, if you think its accurate rate it.


Intro


e|--2---2---2-----2---2---2---2-----2---2---4---4---4-----4---4---4---4---4--|
b|--4---4---4-----4---4---4---4-----4---4---4---4---4-----4---4---4---4---4--| x2
G|-------------3----3-------------3---3----------------4----4-----------4---4|
D|---------------------------------------------------------------------------|
A|---------------------------------------------------------------------------|
E|---------------------------------------------------------------------------|


Verse 1

e|--2---2---2-----2---2---2---2-----2---2---4---4---4-----4---4---4---4---4--|
b|--4---4---4-----4---4---4---4-----4---4---4---4---4-----4---4---4---4---4--| x4
G|-------------3----3-------------3---3----------------4----4-----------4---4|
D|---------------------------------------------------------------------------|
A|---------------------------------------------------------------------------|
E|---------------------------------------------------------------------------|


Chorus 1

           
e|-6~~~~~~-6~~~~~-4~~~~~-'9~~~~~~-|
b|-7~~~~~~-6~~~~~-4~~~~~-'9~~~~~~-|
G|-8~~~~~~-6~~~~~-5~~~~~-10~~~~~~-|
D|-8~~~~~~-6~~~~~-6~~~~~-11~~~~~~-|
A|-6~~~~~~-4~~~~~-6~~~~~-11~~~~~~-|
E|-----------------------'9~~~~~~-|


e|-6~~~~~~-6~~~~~-4~~~~~------------6-------|
b|-7~~~~~~-6~~~~~-4~~~~~---------6-----6----|
G|-8~~~~~~-6~~~~~-5~~~~~-----7-------------7|
D|-8~~~~~~-6~~~~~-6~~~~~-8------------------|
A|-6~~~~~~-4~~~~~-6~~~~~--------------------|
E|------------------------------------------|


e|-6~~~~~~-6~~~~~-4~~~~~-'9~~~~~~-|
b|-7~~~~~~-6~~~~~-4~~~~~-'9~~~~~~-|
G|-8~~~~~~-6~~~~~-5~~~~~-10~~~~~~-|
D|-8~~~~~~-6~~~~~-6~~~~~-11~~~~~~-|
A|-6~~~~~~-4~~~~~-6~~~~~-11~~~~~~-|
E|-----------------------'9~~~~~~-|



e|-6~~~~~~-6~~~~~-7~~~~~---------7---------6~~~~~---------6-----|
b|-7~~~~~~-6~~~~~-7~~~~~-----7------(7)----6~~~~~-----6------(6)|
G|-8~~~~~~-6~~~~~-8~~~~~---8---------------7~~~~~---7-----------|
D|-8~~~~~~-6~~~~~-9~~~~~-9-----------------8~~~~~-8-------------|
A|-6~~~~~~-4~~~~~-9~~~~~-------------------8~~~~~---------------|
E|----------------7------------------------6~~~~~---------------|


Interlude


e|--2---2---2-----2---2---2---2-----2---2---4---4---4-----4---4---4---4---4--|
b|--4---4---4-----4---4---4---4-----4---4---4---4---4-----4---4---4---4---4--| x1
G|-------------3----3-------------3---3----------------4----4-----------4---4|
D|---------------------------------------------------------------------------|
A|---------------------------------------------------------------------------|
E|---------------------------------------------------------------------------|


Verse 2

e|--2---2---2-----2---2---2---2-----2---2---4---4---4-----4---4---4---4---4--|
b|--4---4---4-----4---4---4---4-----4---4---4---4---4-----4---4---4---4---4--| x4
G|-------------3----3-------------3---3----------------4----4-----------4---4|
D|---------------------------------------------------------------------------|
A|---------------------------------------------------------------------------|
E|---------------------------------------------------------------------------|


Chorus 2

           
e|-6~~~~~~-6~~~~~-4~~~~~-'9~~~~~~-|
b|-7~~~~~~-6~~~~~-4~~~~~-'9~~~~~~-|
G|-8~~~~~~-6~~~~~-5~~~~~-10~~~~~~-|
D|-8~~~~~~-6~~~~~-6~~~~~-11~~~~~~-|
A|-6~~~~~~-4~~~~~-6~~~~~-11~~~~~~-|
E|-----------------------'9~~~~~~-|


e|-6~~~~~~-6~~~~~-4~~~~~------------6-------|
b|-7~~~~~~-6~~~~~-4~~~~~---------6-----6----|
G|-8~~~~~~-6~~~~~-5~~~~~-----7-------------7|
D|-8~~~~~~-6~~~~~-6~~~~~-8------------------|
A|-6~~~~~~-4~~~~~-6~~~~~--------------------|
E|------------------------------------------|


e|-6~~~~~~-6~~~~~-4~~~~~-'9~~~~~~-|
b|-7~~~~~~-6~~~~~-4~~~~~-'9~~~~~~-|
G|-8~~~~~~-6~~~~~-5~~~~~-10~~~~~~-|
D|-8~~~~~~-6~~~~~-6~~~~~-11~~~~~~-|
A|-6~~~~~~-4~~~~~-6~~~~~-11~~~~~~-|
E|-----------------------'9~~~~~~-|



e|-6~~~~~~-6~~~~~-7~~~~~---------7---------6~~~~~---------6-----|
b|-7~~~~~~-6~~~~~-7~~~~~-----7------(7)----6~~~~~-----6------(6)|
G|-8~~~~~~-6~~~~~-8~~~~~---8---------------7~~~~~---7-----------|
D|-8~~~~~~-6~~~~~-9~~~~~-9-----------------8~~~~~-8-------------|
A|-6~~~~~~-4~~~~~-9~~~~~-------------------8~~~~~---------------|
E|----------------7------------------------6~~~~~---------------|


Solo

e|---------------------------------------------------------------------|
b|---------------------------------------------------------------------|
G|---------------------------------------------------------------------|
D|---------------------------------------------------------------------|
A|-------------------4//6-----666-6-666-8-9--9//11---9:8:9---8:6:8-6-4-|
E|-4~~~~444~444~6-7----------------------------------------------------|

-------------------------------|
-------------------------------|
-------------------------------|
-6(x15)--9(x9)---8(x6)--8~~~~~-|
-------------------------------|
-------------------------------|



Interlude 2

***Same chords as the Chorus, just strum each chord 4 times***

e|-6~~~~~~-6~~~~~-4~~~~~-'9~~~~~~-|
b|-7~~~~~~-6~~~~~-4~~~~~-'9~~~~~~-|
G|-8~~~~~~-6~~~~~-5~~~~~-10~~~~~~-|
D|-8~~~~~~-6~~~~~-6~~~~~-11~~~~~~-|
A|-6~~~~~~-4~~~~~-6~~~~~-11~~~~~~-|
E|-----------------------'9~~~~~~-|

e|-6~~~~~~-6~~~~~-4~~~~~-|
b|-7~~~~~~-6~~~~~-4~~~~~-|
G|-8~~~~~~-6~~~~~-5~~~~~-|
D|-8~~~~~~-6~~~~~-6~~~~~-|
A|-6~~~~~~-4~~~~~-6~~~~~-|
E|-----------------------|



Chorus 3

           
e|-6~~~~~~-6~~~~~-4~~~~~-'9~~~~~~-|
b|-7~~~~~~-6~~~~~-4~~~~~-'9~~~~~~-|
G|-8~~~~~~-6~~~~~-5~~~~~-10~~~~~~-|
D|-8~~~~~~-6~~~~~-6~~~~~-11~~~~~~-|
A|-6~~~~~~-4~~~~~-6~~~~~-11~~~~~~-|
E|-----------------------'9~~~~~~-|


e|-6~~~~~~-6~~~~~-4~~~~~------------6-------|
b|-7~~~~~~-6~~~~~-4~~~~~---------6-----6----|
G|-8~~~~~~-6~~~~~-5~~~~~-----7-------------7|
D|-8~~~~~~-6~~~~~-6~~~~~-8------------------|
A|-6~~~~~~-4~~~~~-6~~~~~--------------------|
E|------------------------------------------|


e|-6~~~~~~-6~~~~~-4~~~~~-'9~~~~~~-|
b|-7~~~~~~-6~~~~~-4~~~~~-'9~~~~~~-|
G|-8~~~~~~-6~~~~~-5~~~~~-10~~~~~~-|
D|-8~~~~~~-6~~~~~-6~~~~~-11~~~~~~-|
A|-6~~~~~~-4~~~~~-6~~~~~-11~~~~~~-|
E|-----------------------'9~~~~~~-|



e|-6~~~~~~-6~~~~~-7~~~~~---------7---------6~~~~~---------6-----|
b|-7~~~~~~-6~~~~~-7~~~~~-----7------(7)----6~~~~~-----6------(6)|
G|-8~~~~~~-6~~~~~-8~~~~~---8---------------7~~~~~---7-----------|
D|-8~~~~~~-6~~~~~-9~~~~~-9-----------------8~~~~~-8-------------|
A|-6~~~~~~-4~~~~~-9~~~~~-------------------8~~~~~---------------|
E|----------------7------------------------6~~~~~---------------|


Outro

e|--2---2---2-----2---2---2---2-----2---2---4---4---4-----4---4---4---4---4--|
b|--4---4---4-----4---4---4---4-----4---4---4---4---4-----4---4---4---4---4--| x2
G|-------------3----3-------------3---3----------------4----4-----------4---4|
D|---------------------------------------------------------------------------|
A|---------------------------------------------------------------------------|
E|---------------------------------------------------------------------------|

e|-2-|
b|-4-|
G|---|
D|---|
A|---|
E|---|
Tap to rate this tab
# A B C D E F G H I J K L M N O P Q R S T U V W X Y Z