Song name
# A B C D E F G H I J K L M N O P Q R S T U V W X Y Z

Rock N Roll Soldiers - Everybodys Gotta Live tab

                        ROCK N ROLL SOLDIERS
                        EVERYBODYS GOTTA LIVE

STANDARD TUNING
EADGBe


play this throughout almost the whole song
-----------------------------------------------------|
-----------------------------------------------------|
--5-5-----2-22-22--5-5-----2-22-22--5-5-----2-22-22--|
--5-5-2-2-2-22-22--5-5-2-2-2-22-22--5-5-2-2-2-22-22--|
--3-3-2-2-0-00-00--3-3-2-2-0-00-00--3-3-2-2-0-00-00--|
------0-0--------------0-0--------------0-0----------|


chorus
with distortion
-------------------------------------|
-------------------------------------|
--5-5-----2-22-22--5-5-----2-22-22---|
--5-5-2-2-2-22-22--5-5-2-2-2-22-22---|
--3-3-2-2-0-00-00--3-3-2-2-0-00-00---|
------0-0--------------0-0-----------|
everybodys gotta live....


solo played in background
--12-12-10-12-10-12-------12-15-12-15-15-12-15-17b--|
--------------------13------------------------------|
----------------------------------------------------|
----------------------------------------------------|x2
----------------------------------------------------|
----------------------------------------------------|

thats it
very simple song
peace
Tap to rate this tab
# A B C D E F G H I J K L M N O P Q R S T U V W X Y Z