Guitaretab - guitar tabs
Song name
# A B C D E F G H I J K L M N O P Q R S T U V W X Y Z

Rock N Roll Soldiers - Leave This Place tab

-------------------------------------------------------------------------------
               Leave This Place - Rock N' Roll Soldiers
                     So Many Musicians to Kill
-------------------------------------------------------------------------------

Tabbed by: Panji Brotoisworo
Email: panji66(AT)hotmail.com (Replace the 'at')

E-mail me for comments or PM me on my UG Profile - "Esparko"

Tuning: EADGBe

Legend

| #x Play it for a certain amount of times
| /  slide up
| \  slide down
| ^  Bend the string
| h  hammer-on
| p  pull-off
| ~  vibrato
| ph Pinch Harmonic
| ah Artifical Harmonic
| x  Mute note
================



================
Intro/Verse Riff
================

e|-----------------------------------------------------------|
B|-----------------------------------------------------------|
G|-----------------------------------------------------------|
D|--13-13-13-12-12-12-10-10-10-10-12-12-12-------------------|
A|--10-10-10-10-10-10-10-10-10-10-10-10-10-------------------|
E|-----------------------------------------------------------|

e|-----------------------------------------------------------|
B|-----------------------------------------------------------|
G|-----------------------------------------------------------|
D|--15-15-15-13-13-13-12-12-12-12-12-12-12-------------------|
A|--13-13-13-13-13-13-13-13-13-13-13-13-13-------------------|
E|-----------------------------------------------------------|

e|-----------------------------------------------------------|
B|--------------------------11-11-11-11-11-11-11-11----------|
G|--------------------------x--x--x--x--x--x--x--x-----------|
D|--10-10-10-10-10-10-10-10-10-10-10-10-10-10-10-10----------|
A|--8--8--8--8--8--8--8--8--8--8--8--8--8--8--8--8-----------|
E|-----------------------------------------------------------|


e|-----------------------------------------------------------|
B|-----------------------------------------------------------|
G|-----------------------------------------------------------|
D|--8-8-8-8-8-8-8-8-8-8----8-8-8-----------------------------|
A|--6-6-6-6-6-6-6-6-6-5----6-6-5-----------------------------|
E|-----------------------------------------------------------|

======================
Pre-chorus/verse Riff (0:50)
======================
[ Tab from: http://www.guitaretab.com/r/rock-n-roll-soldiers/182039.html ]
e|-----------------------------------------------------------|
B|-----------------------------------------------------------|
G|-----------------------------------------------------------|
D|--8-8-8-8-7-7-7-7-5-5-5-3-3-3------------------------------|
A|--6-6-6-6-5-5-5-5-3-3-3-1-1-1------------------------------|
E|-----------------------------------------------------------|





===============
Chorus - (0:54)
===============

e|-----------------------------------------------------------|
B|-----------------------------------------------------------|
G|------------------------------------8-8-8-8-8-8-8-8--------|
D|--5-5-5-5-5-5-5-5--3-3-3-3-3-3-3-3--8-8-8-8-8-8-8-8--------|x2
A|--5-5-5-5-5-5-5-5--3-3-3-3-3-3-3-3--6-6-6-6-6-6-6-6--------|
E|--3-3-3-3-3-3-3-3--1-1-1-1-1-1-1-1-------------------------|

After you play this 2 times, it proceeds into the Pre-verse 
riff again before going back into the verse

e|-----------------------------------------------------------|
B|-----------------------------------------------------------|
G|--8-8-8-8-7-7-7-7-5-5-5-3-3-3------------------------------|
D|--8-8-8-8-7-7-7-7-5-5-5-3-3-3------------------------------|
A|--6-6-6-6-5-5-5-5-3-3-3-1-1-1------------------------------|
E|-----------------------------------------------------------|






===============
Bridge - (2:36)
===============

e|-----------------------------------------------------------|
B|-----------------------------------------------------------|
G|-15----14----15----14----12----15----14--------------------|
D|-x-----x-----x-----x-----x-----x-----x---------------------|
A|-13----12----13----12----10----13----12--------------------|
E|-----------------------------------------------------------|
  \_________/  \________________________/
   Strum 16x          Strum 8x
     each               each



=============
Solo - (2:48)
=============
The solo can be played in the key of G.
So use G pentatonics or major scale or whatever you please.



==============
Break - (3:02)
==============
This section is played twice after the solo.
Let the notes ring out when you play them.

e|-----------------------------------------------------------|
B|-----------------------------------------------------------|
G|---------12----------12------12---------10---------10----10|
D|-----12----------12-----------------10---------10----------|
A|-10----------10----------10------8----------8----------8---|
E|-----------------------------------------------------------|


e|-----------------------------------------------------------|
B|-----------------------------------------------------------|
G|--------8--------8-----8---------10---------10-----10------|
D|-----8--------8--------------10---------10-----------------|
A|--6--------6--------6-----8----------8----------8----------|
E|-----------------------------------------------------------|



The song then proceeds to the final chorus and then ends.
Related for Leave This Place tab