Guitaretab - guitar tabs
Song name
# A B C D E F G H I J K L M N O P Q R S T U V W X Y Z

Rock N Roll Soldiers - Mud And Waste tab

                      ROCK N ROLL SOLDIERS
                         MUD AND WASTE


STANDARD TUNING
EADGBe

----------------------------------|
----------------------------------|
---6-4--6-4-5--6-11-10--11-10-8---|
-6-6-4--6-4-5--6-11-10--11-10-8---|x2
-6-4-2--4-2-3--4--9--8---9--8-6---|
-4--------------------------------|

[ Tab from: http://www.guitaretab.com/r/rock-n-roll-soldiers/61515.html ]
with distortion
----------------------------------|
----------------------------------|
---6-4--6-4-5--6-11-10--11-10-8---|
-6-6-4--6-4-5--6-11-10--11-10-8---|x2
-6-4-2--4-2-3--4--9--8---9--8-6---|
-4--------------------------------|


then the chorus comes but i couldnt tab it

----------------------------------|
----------------------------------|
---6-4--6-4-5--6-11-10--11-10-8---|
-6-6-4--6-4-5--6-11-10--11-10-8---|x4
-6-4-2--4-2-3--4--9--8---9--8-6---|
-4--------------------------------|


then the chorus and a solo comes
peace
Related for Mud And Waste tab
Advertisement will be closed in 10 seconds