Guitaretab - guitar tabs
Song name
# A B C D E F G H I J K L M N O P Q R S T U V W X Y Z

Rock N Roll Soldiers - Flag Song tab

                          ROCK N ROLL SOLDIERS
                              FLAG SONG

STANDARD TUNING
EADGBe


intro
-----------------------|
-----------------------|
--7--5--4--5--7--------|
--7--5--4--5--7--------|
--5--3--2--3--5--------|
-----------------------|


chorus
-----------------------------|
-----------------------------|
--7-7-10-7-5----7-10-7-5-----|
--7-7-10-7-5-5--7-10-7-5-----|x4
--5-5--8-5-3-5--5--8-5-3-----|
-------------3---------------|

[ Tab from: http://www.guitaretab.com/r/rock-n-roll-soldiers/61566.html ]
---------------------------------------------|
---------------------------------------------|
-----------5--7---7-x-7-5------7-x-7-5-------|
--7--5--3--5--7---7-x-7-5-7-x--7-x-7-5-7-x---|
--7--5--3--3--5---5-x-5-3-7-x--5-x-5-3-7-x---|
--5--3--1-----------------5-x----------5-x---|


chorus
-----------------------------|
-----------------------------|
--7-7-10-7-5----7-10-7-5-----|
--7-7-10-7-5-5--7-10-7-5-----|x4
--5-5--8-5-3-5--5--8-5-3-----|
-------------3---------------|


-----------------|
-----------------|
-----------5--7--|
--7--5--3--5--7--|
--7--5--3--3--5--|
--5--3--1--------|


chorus
-----------------------------|
-----------------------------|
--7-7-10-7-5----7-10-7-5-----|
--7-7-10-7-5-5--7-10-7-5-----|x8
--5-5--8-5-3-5--5--8-5-3-----|
-------------3---------------|


good song
peace
Related for Flag Song tab