Guitaretab - guitar tabs
Song name
# A B C D E F G H I J K L M N O P Q R S T U V W X Y Z

Rock N Roll Soldiers - Cant Break The Glass tab

                           ROCK N ROLL SOLDIERS
                           CANT BREAK THE GLASS

STANDARD TUNING
EADGBe

-----------------------------------------------------------------------|
-----------------------------------------------------------------------|
--5-2-2-5-2-2-5-2-5/7-7-7-7-5-2-2-5-2-2-5-2-5/7-7-7-7------------------|
------------------------------------------------------xxxx77-xxxx55----|
------------------------------------------------------xxxx77-xxxx55----|
------------------------------------------------------xxxx55-xxxx33----|

----------------------------------------------|
----------------------------------------------|
--5-2-2-5-2-2-5-2-5/7-7-7-7-------------------|
----------------------------xxxx77-xxxx55-----|x5
----------------------------xxxx77-xxxx55-----|
----------------------------xxxx55-xxxx33-----|

-------------------------------|
-------------------------------|
--5-2-2-5-2-2-5-2-5/7-7-7-7----|x4
-------------------------------|
-------------------------------|
-------------------------------|

chorus
-----------------------|
-----------------------|
--444444-666666--------|
--555555-777777--------|
--555555-777777--------|
--333333-555555--------|

----------------------------|
----------------------------|
--77-----77-----77-5-4-5-7--|
--77-----77-----77-5-4-5-7--|
----------------------------|
----------------------------|

-------------------------------|
-------------------------------|
--5-2-2-5-2-2-5-2-5/7-7-7-7----|x4
-------------------------------|
-------------------------------|
-------------------------------|
[ Tab from: http://www.guitaretab.com/r/rock-n-roll-soldiers/64997.html ]
----------------------------------------------|
----------------------------------------------|
--5-2-2-5-2-2-5-2-5/7-7-7-7-------------------|
----------------------------xxxx77-xxxx55-----|x4
----------------------------xxxx77-xxxx55-----|
----------------------------xxxx55-xxxx33-----|

-------------------------------|
-------------------------------|
--5-2-2-5-2-2-5-2-5/7-7-7-7----|x4
-------------------------------|
-------------------------------|
-------------------------------|

chorus
-----------------------|
-----------------------|
--444444-666666--------|
--555555-777777--------|
--555555-777777--------|
--333333-555555--------|

solo
------------------------------------------------------------------------|
------------------------------------------------------------------------|
------------------------------------------------------------------------|
--10-7-7-10-7-7-10-7-10/12-12-12-12--10-7-7-10-7-7-10-7-10/12-12-12-12--|
------------------------------------------------------------------------|
------------------------------------------------------------------------|

------------------------------------------------------------------------|
------------------------------------------------------------------------|
--------------------------10-12b-10--------------------------10-12b-10--|
-10-7-7-10-7-7-10-7-10/12-----------10-7-7-10-7-7-10-7-10/12------------|
------------------------------------------------------------------------|
------------------------------------------------------------------------|

------------------------------------------------------------------------|
------------------------------------------------------------------------|
--12b-12b-12br-10--12b-12b---------10------------------------10-10------|
-----------------------------10-12----12--10-12-10-12-101210-------12---|
------------------------------------------------------------------------|
------------------------------------------------------------------------|

thats pretty much it
peace
Related for Cant Break The Glass tab
Advertisement will be closed in 10 seconds