Guitaretab - guitar tabs
Song name
# A B C D E F G H I J K L M N O P Q R S T U V W X Y Z

Rock N Roll Soldiers - Waiting For No One tab

Really good song. Seriously aren't enought RnR Soldier tabs up.
Get on it!


Intro:
                                         
e|--------------------------------------|
B|--------------------------------------|
G|----------7--7-7-7--9--9-x--4--4-4-4--|
D|--4--4-x--7--7-7-7--9--9-x--4--4-4-4--|
A|--4--4-x--5--5-5-5--7--7-x--2--2-2-2--|
E|--2--2-x------------------------------|

e|------------------------------|
B|------------------------------|
G|----------7--7-7-7--9--9-9-9--|
D|--4--4-x--7--7-7-7--9--9-9-9--|
A|--4--4-x--5--5-5-5--7--7-7-7--|
E|--2--2-x----------------------|

e|--------------------------------------|
B|--------------------------------------|
G|----------7--7-7-7--9--9-x--4--4-4-4--|
D|--4--4-x--7--7-7-7--9--9-x--4--4-4-4--|
A|--4--4-x--5--5-5-5--7--7-x--2--2-2-2--|
E|--2--2-x------------------------------|

e|-----------------------------------|
B|-----------------------------------|
G|----------7--7-7-7--9--9-9-9-9-9---|
D|--4--4-x--7--7-7-7--9--9-9-9-9-9---|
A|--4--4-x--5--5-5-5--7--7-7-7-7-7---|
E|--2--2-x---------------------------|

Verse:
                                        x4
e|--------------------------------------|
B|--------------------------------------|
G|----------7--7-7-7--9--9-x--4--4-4-4--|
D|--4--4-x--7--7-7-7--9--9-x--4--4-4-4--|
A|--4--4-x--5--5-5-5--7--7-x--2--2-2-2--|
E|--2--2-x------------------------------|

It's the ending of the day
I can see it in your eyes
I can't stop you if i tried
And you know it
There's no comfort in the gun
But I'm a coward in the light
I'll be killed by my desire
And you know it

Chorus:
                                             x2
e|------------------------------------------|
B|------------------------------------------|
G|--7--7-7-7--9--9-9-9--11-11-11--9--9-9-9--|
D|--7--7-7-7--9--9-9-9--11-11-11--9--9-9-9--|
A|--5--5-5-5--7--7-7-7---9--9--9--7--7-7-7--|
E|------------------------------------------|

e|---------------------------|
B|---------------------------|
G|--7-----9-----11-----9-----|
D|--7-x8--9-x8--11-x8--9-x8--|
A|--5-----7------9-----7-----|
E|---------------------------|

e|----------------------------|
B|----------------------------|
G|--7--7-7-7-7-7-7-6---4--4---|
D|--7--7-7-7-7-7-7-6---4--4---|
A|--5--5-5-5-5-5-5-4---2--2---|
E|----------------------------|

e|--------------------------------------|
B|--------------------------------------|
G|----------7--7-7-7--9--9-x--4--4-4-4--|
D|--4--4-x--7--7-7-7--9--9-x--4--4-4-4--|
A|--4--4-x--5--5-5-5--7--7-x--2--2-2-2--|
E|--2--2-x------------------------------|

e|-----------------------------------|
B|-----------------------------------|
G|----------7--7-7-7--9--9-9-9-9-9---|
D|--4--4-x--7--7-7-7--9--9-9-9-9-9---|
A|--4--4-x--5--5-5-5--7--7-7-7-7-7---|
E|--2--2-x---------------------------|

Verse2:
                                         x4
e|--------------------------------------|
B|--------------------------------------|
G|----------7--7-7-7--9--9-x--4--4-4-4--|
D|--4--4-x--7--7-7-7--9--9-x--4--4-4-4--|
A|--4--4-x--5--5-5-5--7--7-x--2--2-2-2--|
E|--2--2-x------------------------------|
[ Tab from: http://www.guitaretab.com/r/rock-n-roll-soldiers/94947.html ]
I see those houses on the hill
I wonder, which one of them's yours
Coinscience says I'm going to hell
And you know it
Now I'm standing at your door
With a cold knife in my hand
Please forgive me I am scared
And you know it

Chorus:

                                             x2
e|------------------------------------------|
B|------------------------------------------|
G|--7--7-7-7--9--9-9-9--11-11-11--9--9-9-9--|
D|--7--7-7-7--9--9-9-9--11-11-11--9--9-9-9--|
A|--5--5-5-5--7--7-7-7---9--9--9--7--7-7-7--|
E|------------------------------------------|

e|---------------------------|
B|---------------------------|
G|--7-----9-----11-----9-----|
D|--7-x8--9-x8--11-x8--9-x8--|
A|--5-----7------9-----7-----|
E|---------------------------|

e|-----------------------------------------|
B|-----------------------------------------|
G|--7--7-7-7-7-7-7-6--6-6-6-6-6-6---4--4---|
D|--7--7-7-7-7-7-7-6--6-6-6-6-6-6---4--4---|
A|--5--5-5-5-5-5-5-4--4-4-4-4-4-4---2--2---|
E|-----------------------------------------|

e|--------------------------------------|
B|--------------------------------------|
G|----------7--7-7-7--9--9-x--4--4-4-4--|
D|--4--4-x--7--7-7-7--9--9-x--4--4-4-4--|
A|--4--4-x--5--5-5-5--7--7-x--2--2-2-2--|
E|--2--2-x------------------------------|

e|--------------------------------------|
B|--------------------------------------|
G|----------7--7-7-7--9--9--9-9-9-9-----|
D|--4--4-x--7--7-7-7--9--9--9-9-9-9-----|
A|--4--4-x--5--5-5-5--7--7--7-7-7-7-----|
E|--2--2-x------------------------------|

e|--------------------------------------|
B|--------------------------------------|
G|----------7--7-7-7--9--9-x--4--4-4-4--|
D|--4--4-x--7--7-7-7--9--9-x--4--4-4-4--|
A|--4--4-x--5--5-5-5--7--7-x--2--2-2-2--|
E|--2--2-x------------------------------|

e|--------------------------------------|
B|--------------------------------------|
G|----------7--7-7-7--9--9--9-9-9-9-----|
D|--4--4-x--7--7-7-7--9--9--9-9-9-9-----|
A|--4--4-x--5--5-5-5--7--7--7-7-7-7-----|
E|--2--2-x------------------------------|

e|-----------------|
B|-----------------|
G|------7---9---4--|
D|--4---7---9---4--|
A|--4---5---7---2--|
E|--2--------------|

                                             x2
e|------------------------------------------|
B|------------------------------------------|
G|--7--7-7-7--9--9-9-9--11-11-11--9--9-9-9--|
D|--7--7-7-7--9--9-9-9--11-11-11--9--9-9-9--|
A|--5--5-5-5--7--7-7-7---9--9--9--7--7-7-7--|
E|------------------------------------------|

e|---------------------------|
B|---------------------------|
G|--7-----9-----11-----9-----|
D|--7-x8--9-x8--11-x8--9-x8--|
A|--5-----7------9-----7-----|
E|---------------------------|

e|---------------------------------|
B|---------------------------------|
G|--7--7-7-7-7-7-7-6--6-6-6-6-6-6--|
D|--7--7-7-7-7-7-7-6--6-6-6-6-6-6--|
A|--5--5-5-5-5-5-5-4--4-4-4-4-4-4--|
E|---------------------------------|

e|-------------------------------------------------|
B|-------------------------------------------------|
G|--7--7-7-7-7-7-7-6--6-6-6-6-6-6-6-6-6-6-6-6--4---|
D|--7--7-7-7-7-7-7-6--6-6-6-6-6-6-6-6-6-6-6-6--4---|
A|--5--5-5-5-5-5-5-4--4-4-4-4-4-4-4-4-4-4-4-4--2---|
E|-------------------------------------------------|

Please rate well cause it took me awhile.
Thanks!
Related for Waiting For No One tab