Song name
# A B C D E F G H I J K L M N O P Q R S T U V W X Y Z

Rock Voisine - Helene tab

helene ecrit par rock voisine



|----3------3--------6------6-------3-----3--|
|------3---------------3--------------4------|
|---------3----0---------3--------------3----|
|-----------------3------------3-1-----------|
|--------------------------------------------|
|-3------------------------------------------|

|---6p5-----5------5--|
|---------6------6----|
|-------5------5------|x 5
|-3-3-----------------|
|---------------------|
|---------------------|

|-3---6---3---5--------|
|-3---3---4---6--------|
|-3---3---3---5--------|
|-0---3---1---3--------|x 4  2ieme guitare
|----------------------|
|-3--------------------|

|----3------3--------6------6-------3-----3--|
|------3---------------3--------------4------|
|---------3----0---------3--------------3----|
|-----------------3------------3-1-----------|
|--------------------------------------------|
|-3------------------------------------------|

|---6p5-----5------5--|
|---------6------6----|
|-------5------5------|x 4  premiere guitare
|-3-3-----------------|
|---------------------|
|---------------------|

|-6----6---|
|-6----8---|
|-7----8---|
|-8----8---|x 3
|-8----6---|
|-6--------|

|---3---1-------|
|---4---1-------|
|---5---2-------|
|---5---3-------|
|-5-3---3-------|
|-------1-------|

|-6----6---|
|-6----8---|
|-7----8---|
|-8----8---|x 3
|-8----6---|
|-6--------|

|---3---1-------|
|---4---1-------|
|---5---2-------|
|---5---3-------|
|-5-3---3-------|
|-------1-------|



steve.....  pompom020366@hotmail.com     pompom@sympatico.ca
Tap to rate this tab
 
# A B C D E F G H I J K L M N O P Q R S T U V W X Y Z