Song name
# A B C D E F G H I J K L M N O P Q R S T U V W X Y Z

Rocket From The Crypt - Savoir Faire tab

-------------------------------------------------------------------------------
			     SAVOIR FAIRE - Rocket From The Crypt
-------------------------------------------------------------------------------
Tabbed by: emdub2003
Email: warpedvizion@shaw.ca

Tuning: Standard

Intro (4 Bars)
8th notes

e|---------------------------------------------------------------------------|
B|---------------------------------------------------------------------------|
G|---------------------------------------------------------------------------|
D|---------------------------------------------------------------------------|
A|5--5--6-5--5--6-5--5--6-5--5--6--------------------------------------------|
E|-33-33-3-33-33-3-33-33-3-33-33-3-------------------------------------------|


Verse 1 (12 Bars)
Repeat what's shown below X 3
8th notes

e|---------------------------------------------------------------------------|
B|---------------------------------------------------------------------------|
G|---------------------------------------------------------------------------|
D|---------------------------------------------------------------------------|
A|5--5--6-5--5--6-4--4--5-4--4--5--------------------------------------------|
E|-33-33-3-33-33-3-22-22-2-22-22-2-------------------------------------------|


Chorus 1 (6 Bars)
8th notes

e|---------------------------------------------------------------------------|
B|---------------------------------------------------------------------------|
G|---------------------------------------------------------------------------|
D|--6---6---3---3---7---7----------6---6-------------------------------------|
A|44-444-411-111-155-555-5--5--5-44-444-4--3---3-----------------------------|
E|------------------------33-33-3--------11-111-1----------------------------|


Verse 2 (12 Bars)
Repeat what's shown below X 3
8th notes

e|---------------------------------------------------------------------------|
B|---------------------------------------------------------------------------|
G|---------------------------------------------------------------------------|
D|---------------------------------------------------------------------------|
A|5--5--6-5--5--6-4--4--5-4--4--5--------------------------------------------|
E|-33-33-3-33-33-3-22-22-2-22-22-2-------------------------------------------|


Chorus 2 (12 Bars)
Repeat what's shown below X 2
8th notes

e|---------------------------------------------------------------------------|
B|---------------------------------------------------------------------------|
G|---------------------------------------------------------------------------|
D|--6---6---3---3---7---7----------6---6-------------------------------------|
A|44-444-411-111-155-555-5--5--5-44-444-4--3---3-----------------------------|
E|------------------------33-33-3--------11-111-1----------------------------|


Bridge / Solo (12 Bars)
16th notes

e|3333333333333333333333333333333322222222222222222222222222222222333333333333333333333355|
B|----------------------------------------------------------------------------------------|
G|----------------------------------------------------------------------------------------|
D|----------------------------------------------------------------------------------------|
A|----------------------------------------------------------------------------------------|
E|----------------------------------------------------------------------------------------|

e|5555555522222222222222226666666666666666333333333333333355555555555555556666666666666666|
B|----------------------------------------------------------------------------------------|
G|----------------------------------------------------------------------------------------|
D|----------------------------------------------------------------------------------------|
A|----------------------------------------------------------------------------------------|
E|----------------------------------------------------------------------------------------|


Chorus 3 (18 Bars)
Repeat what's shown below X 3
8th notes

e|---------------------------------------------------------------------------|
B|---------------------------------------------------------------------------|
G|---------------------------------------------------------------------------|
D|--6---6---3---3---7---7----------6---6-------------------------------------|
A|44-444-411-111-155-555-5--5--5-44-444-4--3---3-----------------------------|
E|------------------------33-33-3--------11-111-1----------------------------|


Outro (4 Bars)
8th notes

e|---------------------------------------------------------------------------|
B|---------------------------------------------------------------------------|
G|---------------------------------------------------------------------------|
D|---------------------------------------------------------------------------|
A|5--5--6-5--5--6-5--5--6-5--------------------------------------------------|
E|-33-33-3-33-33-3-33-33-33--------------------------------------------------|


| /  slide up
| \  slide down
| h  hammer-on
| p  pull-off
| ~  vibrato
| +  harmonic
| x  Mute note
===============================================================================
Tap to rate this tab
# A B C D E F G H I J K L M N O P Q R S T U V W X Y Z