Song name
# A B C D E F G H I J K L M N O P Q R S T U V W X Y Z

Rocket Science - Eternal Holiday tab

Help us improve GuitareTab! Take a short survey!
Artist: Rocket Science (www.rocketsciencerock.com)
Song: Eternal Holiday


Intro
e ---------------------------------------------------------------------|
B ---------------------------------------------------------------------|
G ---------------------------------------------------------------------|
D ---------------------------------------------------------------------|
A ---------1---3-1-------3-1-3-1-3-----3-1-3-1-3-----------------------|
E -0-1-2-3---3-----3-2-2-----------1-1-----------0-0-0-0-1-------------|
Repeat x 5

e ---------------------------------------------------------------------|
B ---------------------------------------------------------------------|
G ---------------------------------------------------------------------|
D -------------------------0-3-6-3~------------------------------------|
A ---------1---3-1-------3--------------3------------------------------|
E -0-1-2-3---3-----3-2-2------------1-1---1-0-0-0-0-1------------------|

Song: Eternal Holiday


Intro
e ---------------------------------------------------------------------|
B ---------------------------------------------------------------------|
G ---------------------------------------------------------------------|
D ---------------------------------------------------------------------|
A ---------1---3-1-------3-1-3-1-3-----3-1-3-1-3-----------------------|
E -0-1-2-3---3-----3-2-2-----------1-1-----------0-0-0-0-1-------------|
Repeat x 5

e ---------------------------------------------------------------------|
B ---------------------------------------------------------------------|
G ---------------------------------------------------------------------|
D -------------------------0-3-6-3~------------------------------------|
A ---------1---3-1-------3--------------3------------------------------|
E -0-1-2-3---3-----3-2-2------------1-1---1-0-0-0-0-1------------------|
Related for Eternal Holiday tab