Song name
# A B C D E F G H I J K L M N O P Q R S T U V W X Y Z

Rocket Summer - High Life tab

Help us improve GuitareTab! Take a short survey!
This is from Hello Good Friend, after the end of Christmas Present. I sat and tabbed it
out in about 15 minutes so I'm sure their are some incorrect specifics but on the whole
its fairly accurate. So take it as is
questions/comments austin.b.bodin-1@ou.edu

listen for timing/style/changes

standard tuning

3x
-------------------0---------0-------3-------2--2--0--2--|
-----------------3---3-------2-------2-------3--3--3--3--|
---------------2-------2---0-------0------------2--2--2--|
---4-0-----5-0-----------------------------0----0--2--0--|
-2-----4-0---------------0-----0-1-----1-2---------------|
---------------------------------------------------------|

chord progression for next part: *minor stylistic changes in the actual song, listen for 
and the strumming patterns
--3--0--2--2--|
--3--3--3--3--|
--0--2--4--2--|
--0--2--4--0--|
--2--0--2-----|
--3-----------|

2x first time fingered and without the end lick, second time he strums
--2-2-2-2-0-0-0-0-2-2-2-2---5p2h5--5-5-5--3----------------------------2-|
--3-3-3-3-2-2-2-2-3-3-3-3---3---3--3-3-3--3----------------------------3-|
------------------------------------------0----------------------------2-|
--0-0-0-0-----------------0-----0---------0---------------4-------5s7--0-|
----------1-1-1-1-2-2-2-2----------3-3-3--2-----2-2s5---2---2-4-0--------|
------------------------------------------3---3--------------------------|
Related for High Life tab