Song name
# A B C D E F G H I J K L M N O P Q R S T U V W X Y Z

Rocket Summer - Waiting tab

Waiting -The Rocket Summer(3:28)
Composed by Bryce Avary
Tabbed by Uhh me

If it's wrong send the correct tab to the comments I'll be more than happy to fix it, if 
ever remember to check the comments. If not the corrections are in the comments. 
Have fun with it that's what guitar's about yeah?


Riff A(Intro)

|----------------|-----------------|
|----------------|-----------------|
|----------------|-----------------|
|7---9--9--------|9---11--11-------|
|x---x--x--------|x---x---x--------|
|7---7--7--------|9---9---9--------|


Riff B(Verse)    Riff C
|----------------|----------------|
|----------------|----------------|
|11--8---9---9---|----------------|
|9---9---9---9---|5---4---7---7---|
|----------------|5---5---5---5---|
|----------------|----------------|

Riff D(Bridge)
|----------------|----------------|
|----------------|----------------|
|7-------9-------|10------12------|
|7-------9-------|10------12------|
|5-------7-------|8-------10------|
|----------------|----------------|

Riff E(Bridge)
|----------------|----------------|
|----------------|----------------|
|----------------|----------------|
|5--5--4---5-5-5-|5--5--4---7-7-7-|
|5--5--5---5-5-5-|5--5--5---5-5-5-|
|----------------|----------------|


Riff F(End)
|----------------|
|----------------|
|---9---9---8---8|
|---9---9---9---8|
|----------------|
|----------------|

|----------------|
|----------------|
|8-11-8-9-9-6-7-7|
|9-9--9-9-7-7-7-5|
|----------------|
|----------------|

Riff A    |0:00-0:05

Riff B(4x)|0:05-0:13
Riff C(2x)|0:13-0:15
Riff B(6x)|0:15-0:25
Riff C(2x)|0:25-0:28
Riff B(4x)|0:28-0:34
Riff C    |0:34-0:36
Riff D(3x)|0:37-0:58
Riff E    |0:58-1:03
Riff B(4x)|1:03-1:10
Riff C(2x)|1:10-1:13
Riff B(6x)|1:13-1:23
Riff C(2x)|1:23-1:26
Riff B(4x)|1:26-1:34
Riff D(3x)|1:34-1:55
Riff E    |1:55-2:00

PIANO     |2:00-3:05

Riff B(4x)|3:05-3:10
Riff C    |3:10-3:12
Riff F    |3:12-3:15

I'd put the lyrics and uh finish for the piano part but it's 12:52 and I'm sleepy I'll 
it later goodnight UG.
Tap to rate this tab
# A B C D E F G H I J K L M N O P Q R S T U V W X Y Z