Song name
# A B C D E F G H I J K L M N O P Q R S T U V W X Y Z

Rocket Summer - You Gotta Believe tab

You Gotta Believe
Artist: The Rocket Summer
Album: You Gotta Believe EP

Tabbed by: made.to.worship

These chords are probably not exact, but I just guessed it by ear going by power chords.
It's close enough for the music video.

The strumming pattern for this song is easy to here and uses up-down/down-up strums. 
listen to the song and you should be able to figure it out.

The whole song is pretty much these 6 chords in order:
e---------------------------------------------------|
B---------------------------------------------------|
G---------------------------------------------------|
D-7-------9-------10-------5-------3-------5--------|
A-7-(x9)--9-(x1)--10-(x5)--5-(x1)--3-(x5)--5-(x1)---|
E-5-------7--------8-------3-------1-------3--------|

And those chords are played over and over again for the intro, verse, and chorus.
It doesn't get different until the bridge which begins at the breakdown right before 
the cost..." which for this part, I picked the notes:

e---------------------------------------------------------------|
B---------------------------------------------------------------|
G-------5--------------9---------------2--------------1---------|
D---7------7-------10-----10-------3------3-------2------2------|
A---------------------------------------------------------------|
E-5---5----------8---8-----------1---1----------0---0-----------|

Then that repeats until the bridge is over and then for the guitar part I just play 
other same chords over and the song eventually goes back to the chorus.

Well I hope this helped at least somewhat. Can't guarantee these are 100% accurate, but 
least it fits with the song. Please let me know what you think. Happy jamming! :)
Tap to rate this tab
 
# A B C D E F G H I J K L M N O P Q R S T U V W X Y Z