Song name
# A B C D E F G H I J K L M N O P Q R S T U V W X Y Z

Rocket Summer - Light tab

------------------------------------------------------------------------------
			     Light - The Rocket Summer
-------------------------------------------------------------------------------
Tabbed by:Ricardo531
Email:

The basic Chord Progression is Dsus4, Aadd9, Esus4, E. (that is that little acoustic 
at the end)
hopefully this gives you enough of the song. and this was by ear, so go figure.
you can mix this with that other Chord version of this and see what you get.

Tuning: Standard

Guitar 1
e|---------------------------------------------------------------------------|
B|---------------------------------------------------------------------------|
G|----9-9-9-------------------------9-9--------------------------------------|
D|----7-7-7--7-7-7-------7-7-7--6-7-9-9-7-6----------------------------------|
A|----5-5-5--5-5-5-------7-7-7--7-7-7-7-7-7----------------------------------|
E|-----------7-7-7-7-9-7-9-9-9----------------x2-----------------------------|

Guitar 2 (second time only)
e|---------------4-5---------------------------------------------------------|
B|---------------0-2---------------------------------------------------------|
G|-----/9--------------------------------------------------------------------|
D|--------7-6----------------------------------------------------------------|
A|---------------------------------------------------------------------------|
E|---------------------------------------------------------------------------|


Good luck :]


************************************

| /   slide up
| \   slide down
| h   hammer-on
| p   pull-off
| ~   vibrato
| +   harmonic
| x   Mute note
| b   Bend
| pb  Pre-bend
| br  Bend release
| pbr Pre-bend release
| brb Bend release bend

************************************
Tap to rate this tab
 
# A B C D E F G H I J K L M N O P Q R S T U V W X Y Z