Song name
# A B C D E F G H I J K L M N O P Q R S T U V W X Y Z

Rocket Summer - I Want Something To Live For tab

e|------------------------------------------------------------------------|
B|-----9-7-9-7------------------------------------------------------------|
G|-------------8-6-8-6----------------------------------------------------| (x4)
D|------------------------------------------------------------------------|
A|------------------------------------------------------------------------|
E|------------------------------------------------------------------------

|e|-----------------------------------------------------------------------|
B|-----9-7-9-7----------9-7-9-7-------------------------------------------|
G|-------------8-6-8-6----------------------------------------------------|  (x4)
D|------------------------------8/9/8-------------------------------------|
A|------------------------------------------------------------------------|
E|------------------------------------------------------------------------|
 

   "/"=slide
Tap to rate this tab
 
# A B C D E F G H I J K L M N O P Q R S T U V W X Y Z