Guitaretab - guitar tabs
Song name
# A B C D E F G H I J K L M N O P Q R S T U V W X Y Z

Rocket Summer - Goodbye Waves And Driveways tab

Goodbye Waves and Drive Ways Ė The Rocket Summer - Hello, Good Friend.

Awesome guy, awesome song. I did my best to hear this all, if you can find any mistakes 
can figure out the bridge, lemme know. Oh and itís my first tab.
matt2294@yahoo.com

Drop D Tuning

Intro:
E------------0---0---0------0----------------2-------0---0------0------|
B--------------------3----3ó-(3)--3----2-----------------3----3ó-(3)---|
G---6----6-----2-----2--2---------2----2--------1--1-----2--2----------|
D---7--7-------------0-----------------------------------0-------------|
A---0----------------0-----------------------------------0-------------|
D------------4-------0------------4--4-----4----2--------0-------------|

E------------0---0---0------0-------------------0----------------------|
B--------------------3----3--(3)--0----------0------------0------------|
G---6----6-----2-----2--2--------------2-------------2--------1--------|
D---7--7-------------0-------------------------------------------------|
A---0----------------0-------------------------------------------------|
D------------4-------0------------4--4----4-----2--2---2------2--------|

Verse 1:
E------------0---0---0------0----------------2-------0---0------0------|
B--------------------3----3--(3)--3----2-----------------3----3--(3)---|
G---6----6-----2-----2--2---------2----2--------1--1-----2--2----------|
D---7--7-------------0-----------------------------------0-------------|
A---0----------------0-----------------------------------0-------------|
D------------4-------0------------4--4-----4----2--------0-------------|
(1)Just     walk    away,     Gather your thoughts, for the second wave
(2)But we stand here both proud both wrong and right, throwing cheap shots
 in this Stubborn fight

E------------0---0---0------0-------------------0-------------------(0)|
B--------------------3----3--(3)--0----------0------------0-------(0)--|
G---6----6-----2-----2--2--------------2-------------2--------1-(1)----|
D---7--7-------------0-------------------------------------------------|
A---0----------------0-------------------------------------------------|
D------------4-------0------------4--4----4-----2--2---2------2--------| x 2
Of this argument, of this epic changing day, itís crazy to think that an hour
ago all things were great.
And our lives are so intertwined in one, weíre just so stuck in this moment
Itís clear that weíre coming undone.

Pre-Chorus:
E---0--------5-4---0-----0------0-----0----------|
B---2----2---------3-------3------3-----3--(3)---|
G---2ó-2-----------2--2------2------2-----2------|
D---2--------------0-----------------------------|
A---0--------------0-----------------------------|
D---0--------------0-----------------------------| x 3
And you see, itís hard for me to breathe,
When I get all worked up with these feelings
And I donít know exactly how it is

E---0------0-------0------0-----0------0------0----|
B---0----0-----0---0----0-------0----0-----0--0----|
G---2--2-----2-----1--1---------2--2-----2----1----|
D---2--------------2------------2-------------2----|
A---0--------------0------------0-------------0----|
D--------------------------------------------------|
That we can be so mad we considered not to exist
We both know thereís so much love clenched within our fists.
[ Tab from: http://www.guitaretab.com/r/rocket-summer/72774.html ]
Chorus:
E------0-------0---------------------------------------------------|
B---3--2----3--2----0-------0-------3--2----3--2------------2--0---|
G---2--2----2--2----1--2----1--2----2--2----2--2----1--2----2--2---|
D------------------(2)-2---(2)-2--------------------2--2-----------|
A------------------------------------------------------------------|
D--(4)(4)--(4)(4)--(2)(2)--(2)(2)--(0)(0)--(0)(0)--(2)(2)--(2)(2)--|
Goodbye waves in the drive way just resonate, And yes Iím throwing it
right back at her, while weíre drowning in rivers from our faces

E------0-------0---------------------------------------------------|
B---3--2----3--2----0-------0-------3--2----3--2---------------3---|
G---2--2----2--2----1--2----1--2----2--2----2--2-------1-------2---|
D------------------(2)-2---(2)-2-----------------------2-----------|
A------------------------------------------------------------------|
D--(4)(4)--(4)(4)--(2)(2)--(2)(2)--(0)(0)--(0)(0)-----(2)-----(4)--|
We just want to know if this, is this over? Trembling silence fills the
air as we stand here, so impaired, but so aware.

Verse 2:
E------------0---0--0------0----------------2-------0--0------0-----2-4|
B-------------------3----3ó-(3)--3----2----------------3---------------|
G---6----6-----2----2--2---------2----2--------1--1----2--0/2---2/4----|
D---7--7------------0----------------------------------0---------------|
A---0---------------0----------------------------------0---------------|
D------------4------0------------4--4-----4----2-------0---------------|

E-------9--------7--------5-----5------5------------5--------4-----x---|
B-----5-5-5----5---5----5-5-5---5-5----5-5---5----5---5----5---5---x---|
G---6--------7--------7-------7-----7------7----7--------7---------2---|
D------------------------------------------------------------------2---|
A------------------------------------------------------------------0---|
D----------------------------------------------------------------------|
Sit in this house, alone with fresh photographs, and I just canít relax.

E------0-----2-4--|
B-----------------|
G--0/2---2/4------|
D-----------------|
A-----------------|
D-----------------|

E-------9--------7--------5-----5------5-------0----0-0----0-0------0--|
B-----5-5-5----5---5----5-5-5---5-5----5-5-----2----2-0----0-0----0----|
G---6--------7--------7-------7-----7------7---2--2---2--2---1--1------|
D----------------------------------------------2------2------2---------|
A----------------------------------------------0------0------0---------|
D----------------------------------------------0------0------0---------|
Like cigarette smoke, Iím starting to choke on this, half of my soulís on
The road with a girl in a dress.

Pre-Chorus

Chorus

-After ďas we stand hereĒ (3:41) I canít here the guitar anymore because of
 all the other instruments kicking in, at least until the end of the bridge
 or whatever. -

So hey now, maybe weíre just being stupid, Hey, maybe weíre just being dumb,
No, hey, maybe itís time that we stopped and we realize that, flag in the
wind we are one, and how at first it makes so cute and lovely, the battle can
can be torn to shreds, with time and patience, and love and affection, we can
beat this with needles and thread, because I love you! And you love me, and
nothing will make this leave, I said, I love you, and you love me, and nothing
will make, make, make, make this leave. So remember me, yeahÖ remember me,
yeah. Remember meÖ

Outro:
E------------0---0--0-|
B-------------------3-|
G---6----6-----2----2-|
D---7--7------------0-|
A---0---------------0-|
D------------4------0-|
Donít       Walk    Away.
Related for Goodbye Waves And Driveways tab