Guitaretab - guitar tabs
Song name
# A B C D E F G H I J K L M N O P Q R S T U V W X Y Z

Rocket Summer - A Song Is Not A Business Plan tab

heyyy there

first tab :)
i think i did prettty danggg good.

Intro/Verse:
E--x---x-x---x-x                  E--x---x-x-|
B--x---x-x---x-x                  B--x---x-x-|
G--4---4-3---4-4                  G--4---4-4-|
D--4---4-4---4-4    X3 then.....  D--4---4-4-|
A--x---x-x---x-x                  A--x---x-x-|
E--0---0-2---2-0                  E--4---4-2-|


Then the Pre Chorus


E--------------------------------------------------|
B--------------------------------------------------|
G---------------4------4---------------------------|
D--5-----2------4--X8--4--X8-------5-----2-----xx--|
A--5-X8--2-X8---2------x-----------5-X8--2-X6--xx--|
E--3-----0-------------4-----------3-----0-----xx--|

Chorus Chords
[ Tab from: http://www.guitaretab.com/r/rocket-summer/93087.html ]
B       E
I want to
E               G#
that's a given but,
G#
I can't it imagine
F#               B
the same way as you
B     E
Oh you
E
know I'll never do
G#                F#
the things they do just to make it


For the "woahs" do the intro
same for the second verse


Bridge : "do you even know, what you're even saying..."

E-------------------------------------------------------------------|
B-------------------------------------------------------------------|
G---------------------4---------------------------------------------|
D--2-----4-----6------4--X8-----------------------------------------|
A--2--X8-4-X8--6--X8--2---------------------------------------------|
E--0-----2-----4----------------------------------------------------|

Then Chorus again

email me if ya got any questions or comments or anything :D

kxboges@aol.com

C YA!
Related for A Song Is Not A Business Plan tab
×
Best way to learn
"A Song Is Not A Business Plan"