Song name
# A B C D E F G H I J K L M N O P Q R S T U V W X Y Z

Rocketship - Kisses Are Always Promises chords

Highlighted       Show chord diagrams
KISSES ARE ALWAYS PROMISES
by Rocketship
from the album 'A Certain Smile, A Certain Sadness'

tabbed by drew (iamdrew@gmail.com)


VERSE 1

G         Am     C       D
   you're moving way too fast to 
G          Am     C     D
slow down.     remember that
G       Am    C       D 
   your words mean so much to 
G      Am          C            D
me.       cant you see cant you see

CHORUS

melody
e-|------------------------------------------------------------------------------|
B-|--3--1--0--------0----1--0----------------0---------------0--1--0-------------|
G-|-----------0--2-------------2-----0--2-------2--0--2---(0)---------2-(0)-(0)--|
D-|-------------------------------4----------------------------------------------|
A-|------------------------------------------------------------------------------|
E-|------------------------------------------------------------------------------|

Em         Am       D            G           C          Am       C           D
kisses are promises so please be honest with taking our love and breaking my heart
Em         Am          D              G          C           Am       C      D
kisses are precious so please dont be selfish by giving your love but living apart from 
G          Am       C        D       
me         na na na na na na na na na 
G          Am       C        D 
na         na na na na na na na

melody for na na na na 
e-|----------------------------------|
B-|-------------0--1--0--------------|
G-|----2--0--2-----------2--0--2--0--|
D-|----------------------------------|
A-|----------------------------------|
E-|----------------------------------|


VERSE 2

G         Am    C      D      
   you're going way to far to 
G         Am     C      D
turn back      remember all 
G        Am     C       D   
   youre smiles mean so much to 
G      Am          C            D
me.       cant you see cant you see

CHORUS

Em         Am       D            G           C          Am       C           D
kisses are promises so please be honest with taking our love and breaking my heart
Em         Am          D              G          C           Am       C      D
kisses are precious so please dont be selfish by giving your love but living apart from 
G          Am       C        D       
me         na na na na na na na na na 
G          Am       C        D 
na         na na na na na na na



http://en.wikipedia.org/wiki/Rocketship_(band)

twee/indie-pop
Tap to rate this tab
# A B C D E F G H I J K L M N O P Q R S T U V W X Y Z